Song name
# A B C D E F G H I J K L M N O P Q R S T U V W X Y Z

Karnivool - New Day tab

-----------------------------------------------------------------
	               New Day - Karnivool
-----------------------------------------------------------------
Tabbed by: Kristyn Lee
Email: spot_the_village_loony_836@hotmail.com

Tuning: B F# B G B E

Intro
e |----------------------------------------------|
B |--------2---------0--------0---------/3-2-----|
G |------2---2-----2---2----2--2-----------------|x4
B |--------------------------------0-0-----------|
F#|--0-0-------2-2-------------------------------|
B |---------------------3-3----------------------|

pre-chorus
e |---------------------------------------------------|
B |------2-----2-----2-----2-----2-----2-----2-----2--|
G |----2-----2-----2-----2-----2-----2-----2-----2----|
B |--3-----3-----3-----3-----0-----0-----0-----0------|
F#|---------------------------------------------------|
B |---------------------------------------------------|
     . . . . . . . . . . . . . . . . . . . . . . . .

e |---------------------------------------------------|
B |------2-----2-----2-----2-----2-----2-----0-----0--|
G |----2-----2-----2-----2-----2-----2-----2-----2----|
B |--3-----3-----3-----3-----------------5-----5------|
F#|-------------------------3-----3-------------------|
B |---------------------------------------------------|
     . . . . . . . . . . . . . . . . . . . . . . . .

e |---------------------------------------------------|
B |-----2-----2-----2-----2-----2-----2-----22h3------|
G |---2-----2-----2-----2-----2-----2-----2-----------|
B |-3-----3-----3-----3-----0-----0-----0-------------|
F#|---------------------------------------------------|
B |---------------------------------------------------|
    . . . . . . . . . . . . . . . . . . . . 

   "you will not see me..."
e |----------------------------------------|
B |-------2---------0---------0------------|
G |-----2---2~----2---2~----2---2~---------|
B |----------------------------------------|
F#|---0---------2--------------------------|
B |----------------------3-----------------|

   "it's a new day..."
e |----------------------------------------|
B |------2--------0--------0------33-22----|
G |----2---2----2---2----2---2-------------|x3
B |-----------------------------0----------|
F#|--0--------2----------------------------|
B |--------------------3-------------------|
   

e |------2--------0-----------------------------|
B |----2---2----2---2----0-3-2-----33-3p2-------|
G |---------------------------------------------|
B |-----------------------------0---------------|
F#|--0--------2-------3-------------------------|
B |---------------------------------------------|
                                   ..  

e |-------------2-22----------------------------|
B |--3-3-3-2----2-22----------------------------|
G |--2-2-2-2------------------------------------|
B |---------------------------------------------|
F#|----------0~---------------------------------|
B |----------0~---------------------------------|

that's all so far. great song.


| .  palm mute
| /  slide up
| \  slide down
| h  hammer-on
| p  pull-off
| ~  vibrato
| +  harmonic
| x  Mute note
================================================================
Tap to rate this tab
# A B C D E F G H I J K L M N O P Q R S T U V W X Y Z