Song name
# A B C D E F G H I J K L M N O P Q R S T U V W X Y Z

Kataklysm - The Last Effort tab

THE LAST EFFORT
TABED BY:(666kataklysm)
__=palm mute
/=slide 

RIFF 1A
|--------------------------------------------|
|--------------------------------------------|
|--------------------------------------------|
|--9-9-9-9-9-9-777-101010--9-9-9-555-777-444-|
|-101010101010-999-121212-101010-777-999-555-|
|--------------------------------------------|

RIFF1B
|-------------------------------------------|
|-------------------------------------------|
|-------------------------------------------|
|--9-9-9-9-9-9-777-101010--9-9-9-444--------|
|-101010101010-999-121212-101010-555-555555-|
|------------------------------------777777-|

RIFF1C
|-----------------------------------------------------------------|
|-----------------------------------------------------------------|
|-----------------------------------------------------------------|
|--9-9-9-9-9-9-777-101010--9-9-9-555-777-444----------------------|
|-101010101010-999-121212-101010-777-999-555-333/5555/7777/101010-|
|--------------------------------------------555/7777/8888/-9-9-9-|

RIFF 2A
|---------------------------------------------------------------|
|---------------------------------------------------------------|
|---------------------------------------------------------------|
|-5------7--9-7------------------5-----7--9-7-7----5------------|
|-7------9-10-9-10---9----7------7-----9-10-9-5-00-3-00-5-------|
|---00000-------8-00-7-00-5-00000-00000-----------------3-00000-|
    _____         __   __   _____ _____         __   __   _____

RIFF 2B
|----------------------------------------------------|
|----------------------------------------------------|
|----------------------------------------------------|
|-5-------7--9-7-------------------------------------|
|-7-------9-10-9-10----9----7-------5-------5/777/10-|
|---00000---------8-00-7-00-5-00000-3-00000-3/555/8--|
    _____           __   __   _____   _____

RIFF 3
|---------------------------------------------------------------------|
|---------------------------------------------------------------------|
|--9-9-9-9-9-9-555555--------444444-9-9-9-9-9-9--555555---------------|
|-101010101010-777777-555555-555555-101010101010-777777-555555-444444-|
|---------------------777777----------------------------777777-555555-|
|---------------------------------------------------------------------|

RIFF 4A
|--------------------------------|
|--------------------------------|
|--------------------------------|
|-4-------4-2-4-5-------777777---|
|-2-0000--2-0-2-3-00000-555555---|
|--------------------------------|
    ____          _____

RIFF 1A/B/C
RIFF 2A/B/C
RIFF 3
RIFF4A

RIFF 4B
|-----------------------------------------------------|
|-----------------------------------------------------|
|-----------------------------------------------------|
|--------------5-4-2----------------------------------|
|-2------2-----3-2-0-3------2------2------4-5-4-7-5-4-|
|-0-0000-0-0000------1-0000-0-0000-0-0000-2-3-2-5-3-2-|
    ____   ____        ____   ____   ____

FILL
|-----|
|-----|
|-----|
|-----|
|--2--|
|--0--|

RIFF 5A(LOW DISTORTION)
|---------------------------------------|
|---------------------------------------|
|---------------------------------------|
|---5---5-----4--4----5--5-----7--------|
|--7---7--7--5--5--5-7--7--7--9---------|
|-0---0--8--0--0--7-0--0--8--0--5-3-2-0-|

RIFF 5B(LOW DISTORTION)
|---0-00000---2-22222---2-22222---5-55555----|
|-0---00000-0---00000-3---33333-5---55555----|
|--------------------------------------------|
|--------------------------------------------|
|--------------------------------------------|
|--------------------------------------------|

SORRY NO SOLO
________________


SOLO BACKING
|-------------------------------------|
|-------------------------------------|
|-------------------------------------|
|-------------------------------------|
|-22222222-55555555-77777777-55555555-|
|-00000000-33333333-55555555-33333333-|
  ________ ________ ________ ________

RIFF2A/B/C
RIFF 1

FILL(GUITAR 1)
|--0--|
|--0--|
|-----|
|-----|
|-----|
|-----|

FILL (GUITAR 2)
|-----|
|-----|
|-----|
|-----|
|--2--|
|--0--|

THATS IT IF YOU HAVE ANY QUESTIONS OR COMMENTS EMAIL ME AT pepole_red@yahoo.com

Tap to rate this tab
# A B C D E F G H I J K L M N O P Q R S T U V W X Y Z