Guitaretab - guitar tabs
Song name
# A B C D E F G H I J K L M N O P Q R S T U V W X Y Z

Katy Perry - Last Friday Night tab

-------------------------------------------------------------------------------
			     Katy Perry  -  Last Friday Night (T.G.I.F)
-------------------------------------------------------------------------------


Tabbed by: theTABASCUShero
Email: igoe@live.co.uk though i have no idea why you'd want to email me.

Tuning: Standard
[ Tab from: http://www.guitaretab.com/k/katy-perry/249712.html ]
This song is by the gorgeous Katy Perry off her album Teenage Dream and the tabs 
for it at the moment are alright, but I doubt the guitarist uses a capo for the 
recording so here's the tab set out with barre chords.
  
    B               Gb minor                      Em                   Cb    
e |----7-7-7---7-7-7----------7-4-4-4---4-4-4--------4-6-6-6---6-6-6-----6-4-4-4---4-4-4-----|
B |----7-7-7---7-7-7----------7-4-4-4---4-4-4--------4-7-7-7---7-7-7-----7-6-6-6---6-6-6-----|
G |----6-6-6---6-6-6----------6-4-4-4---4-4-4--------4-8-8-8---8-8-8-----8-6-6-6---6-6-6-----|
D |----8-8-8---8-8-8----------8-6-6-6---6-6-6--------6-8-8-8---8-8-8-----8-6-6-6---6-6-6-----|
A |----8-8-8---8-8-8----------8-6-6-6---6-6-6--------6-7-7-7---7-7-7-----7-4-4-4---4-4-4-----|
E |----7-7-7---7-7-7----------7-4-4-4---4-4-4--------4-7-7-7---7-7-7-----7-4-4-4---4-4-4-----|
              
               There's a stranger in my bed, There's a pounding my head, Glitter 
all over the room,   Pink flamingos in the pool.     etc..


Later on I'll tab out the tricky saxophone solo
Related for Last Friday Night tab
Last Friday Night chords by Katy Perry