Song name
# A B C D E F G H I J K L M N O P Q R S T U V W X Y Z

Katy Perry - Wide Awake tab

Katy Perry - Wide Awake 

NOTE: check out my channel/ video for the full tab arrangement of this song @
http://www.youtube.com/user/anjelloguitar
Subscribe for more Cover/ tutorial videos coming soon

Capo 3 



Intro
e|-----3-----------|
B|-----3--3--2-----|
G|--------2--2-----|
D|--2--------2-----|
A|--2--------------|
E|-----3-----------|
    .  .  .  .

Verse
e|---------------3-3-3--3-3------------------------------|
B|---------------3-3-3--3-3---3-3-3--3-3----2-2-2--2-2---|
G|----------------------------2-2-2--2-2----2-2-2--2-2---|
D|--2-2-2--2-2------------------------------2-2-2--2-2---|
A|--2-2-2--2-2-------------------------------------------|
E|---------------3-3-3--3-3------------------------------|
    . . .  . .   . . .  . .   . . .  . .    . . .  . .

Pre-Chorus

e|---------------3-3-3--3-3------------------------------|
B|---------------3-3-3--3-3---3-3-3--3-3----2-2-2--2-2---|
G|----------------------------2-2-2--2-2----2-2-2--2-2---|
D|--2-2-2--2-2------------------------------2-2-2--2-2---|
A|--2-2-2--2-2-------------------------------------------|
E|---------------3-3-3--3-3------------------------------|
    . . .        . . .        . . .         . . .  

Chorus

e|---------------3-3-3--3-3------------------------------|
B|---------------3-3-3--3-3---3-3-3--3-3----2-2-2--2-2---|
G|----------------------------2-2-2--2-2----2-2-2--2-2---|
D|--2-2-2--2-2------------------------------2-2-2--2-2---|
A|--2-2-2--2-2-------------------------------------------|
E|---------------3-3-3--3-3------------------------------|

NOTE: check out my channel/ video for the full tab arrangement of this song @
http://www.youtube.com/user/anjelloguitar
Subscribe for more Cover/ tutorial videos coming soon

Tabbed by Angelo Armendi
Tap to rate this tab
 
# A B C D E F G H I J K L M N O P Q R S T U V W X Y Z