Song name
# A B C D E F G H I J K L M N O P Q R S T U V W X Y Z

Kaveszunet - Mama tab

Kávészünet - Mama (tabbed by yetirepa@freemail.hu)

Intro

E:------------------------------------------------|
B:------------------------------------------------|
G:----0-----0-------0------0--0--0-------0-------0|
D:------------------------------------------------|
A:--7--7--5---5---3---3--0---0--7--7---5---5--3---|
E:------------------------------------------------|

E:-------------------------------------0------0-------0-|
B:-----0------0------0-----0---0-------0------0-------0-|
G:-----0------0------0-----0---0------------------------|
D:------------------------------------------------------|
A:--7---7--5---5---3--3--0---0------7---7--5---5---3----|
E:------------------------------------------------------|

Verse

E:-------------------------------0------------------------------------|
B:------0--------------------3s5---5-------0------------------3-------|
G:----0--(0)------0-----0----------------0--(0)------0-----0----0---0-|
D:--------------4------2---------------------------4-----2---2----2---|
A:--7---------5-----3-----3--0---------7---------5-----3--------------|
E:--------------------------------------------------------------------|

E:-------------------------------0---------------------------------3--|
B:------0--------------------3s5---5------0--------------------3s5---5|
G:----0--(0)------0-----0---------------0--(0)------0-----0-----------|	
D:--------------4------2--------------------------4------2------------|	
A:--7---------5-----3-----3--0--------7---------5-----3-----3--0------|	
E:--------------------------------------------------------------------|

Chorus

E:------------------------------------------------------------- ||
B:------------------------------------------------------------- ||
G:----0------0-------0------0-------0------0-------0------0----:||  2x
D:------------------------------------------------------------- ||
A:------------------------------------------------------------- ||
E:--0---0--0---0---7---7--7---7---8---8--8---8---7---7--7---7-- ||

Pre-Chorus

E:-----0----0------0-------------|    E:-------0----0-------0-0-0-0-0-0-0-0-|
B:-----0----0------0-----2----2--|    B:-------0----0-------0-0-0-0-0-0-0-0-|
G:-----------------------2----2--|3x  G:--------------------0-0-0-0-0-0-0-0-|
D:-------------------------------|    D:--------------------2-2-2-2-2-2-2-2-|
A:--7----5------3------0----0----|    A:----7----5------3---3-3-3-3-3-3-3-3-|
E:-------------------------------|    E:------------------------------------|

Chorus 2 (akkordok)
    
  E minor  B minor  C major G major F# minor
E:--7--------7--------8-------3--------2------12
B:--8--------7--------8-------3--------2------12
G:--9--------7--------9-------4--------2------12
D:--9--------9--------10------5--------4--------
A:--7--------9--------10------5--------4--------
E:-----------7--------8-------3--------2--------

Sorrend: Intro - Verse - Chorus - Intro - Verse - Chorus - Pre-Chorus - Chorus 2
Tap to rate this tab
 
# A B C D E F G H I J K L M N O P Q R S T U V W X Y Z