Song name
# A B C D E F G H I J K L M N O P Q R S T U V W X Y Z

Kaveszunet - Csonka Vers tab

Kaveszunet - Csonka vers (tabbed by Csaki Tamas e-mail: yetirepa@freemail.hu)

Intro

E:--3------------------|
B:----0-3---3-0--------|
G:--------------3-2-0--|
D:---------------------|
A:---------------------|
E:---------------------|

Variacio 1.

    Em           Am           G             D

E:-------------------------------------------2-----2----|
B:----0-----0------1-----1------0-----0------3-----3----|
G:----0-----0------2-----2------0-----0-----------------|
D:-----------------------------------------0-----0---0--|
A:---------------0-----0---0----------------------------|
E:--0-----0---0---------------3-----3---3---------------|

Variacio 2.

    Em           Am           G             D

E:-------------------------------------------2-------------|
B:----0-----0------1-----1------0-----0------3------3---3--|
G:----0-----0------2-----2------0-----0--------2-0h2-0h2---|
D:-----------------------------------------0---------------|
A:---------------0-----0---0-------------------------------|
E:--0-----0---0---------------3-----3---3------------------|

Variacio 3.

    Em           Am           G             D

E:-------------------------------------------2-2-2-2-2-2--|
B:----0-----0------1-----1------0-----0------3-3-3-3-3-3--|
G:----0-----0------2-----2------0-----0------2-2-2-2-2-2--|
D:-----------------------------------------0-0-0-0-0-0-0--|
A:---------------0-----0---0------------------------------|
E:--0-----0---0---------------3-----3---3-----------------|

Variacio 4.

Akkordozas:

    Em Am G  D
      
E:--0--0--3--2--|
B:--0--1--0--3--|
G:--0--2--0--2--|
D:--2--2--0--0--|
A:--2--0--2--X--|
E:--0--x--3--X--|

Variacio 5.

    Am           G            D

E:------------------------------2-----2----|
B:----1-----1------0-----0------3-----3----|
G:----2-----2------0-----0-----------------|
D:----------------------------0-----0---0--|
A:--0-----0---0----------------------------|
E:---------------3-----3---3---------------|

Variacio 6.

    Em           Am           G            D            E

E:-------------------------------------------2-----2----0--|
B:----0-----0------1-----1------0-----0------3-----3----0--|
G:----0-----0------2-----2------0-----0------2-----2----1--|
D:-----------------------------------------0-----0------2--|
A:---------------0-----0---0----------------------------2--|
E:--0-----0---0---------------3-----3---3---------------0--|

Sorrend: V1-V1-V2-V1-V2-V3-V4-V3-V4-V4-V5-V2-V6
Tap to rate this tab
 
# A B C D E F G H I J K L M N O P Q R S T U V W X Y Z