Song name
# A B C D E F G H I J K L M N O P Q R S T U V W X Y Z

Keel - Tears Of Fire tab

Help us improve GuitareTab! Take a short survey!
intro
-------------0--------0-----0----------|
----------------0-----------0----------|
-------2-----------0--------2----------|
----2-----2-----------------2----------|
-0--------------------------0----------|
------------------------x7-------------|

verse
-------------0--------0-----------------2----|
----------------0--------------------2-------|
-------2-----------0--------------2----------|
----2-----2--------------------2-------------|
-0--------------------------0----------------|
-------------------------x15-----------------|

chorus (iffy)
-------------2-----------------2-repeats-----|
----------2-----------------2----------------|
-------2-----------------2-------------------|
----2-----------------2----------------------|
-0-------------------------------------------|
---------------------------------------------|
Related for Tears Of Fire tab