Song name
# A B C D E F G H I J K L M N O P Q R S T U V W X Y Z

Keel - Speed Demon tab

Help us improve GuitareTab! Take a short survey!
e-----------------------------------------------------------------|
b-----------------------------------------------------------------|
g-----------------------------------------------------------------|
d-----4------4-----4------2--4-------4------4-------4--------7--9-|
a---4---------------------0--2-----4-------------------------5--7-|
e-2-----2--2---2--2--2--2--------2-----2--2----2--2----2--2-------|

e----------------------------------------------------------------|
b----------------------------------------------------------------|
g----------------------------------------------------------------|
d-----4--------4------4------2-4--------4--------4--------2------|
a---4------------------------0-2------4-------------------2------|
e-2------2--2----2--2---2--2--------2------2--2-------2---0------|
Related for Speed Demon tab