Guitaretab - guitar tabs
Song name
# A B C D E F G H I J K L M N O P Q R S T U V W X Y Z

Keith Richards - 32-20 Blues tab

e-----/9--------8-8---7-7---5------------------------/9----------9-8-9-|
H-----/8--------7-7---6-6---5--8--7--6--5------------/8----------8-7-8-|
G-----/9--------8-8---7-7---6--6--6--6--6---7-7------/9----------9-8-9-|
D-------------------------------------------6-6------------------------|
A---0--0--0--0--0--0--0--0--0--0--0--0--0-/7---7--0--0--0--0--0--0-----|
E----------------------------------------------------------------------|


-----5--3-2------5-5---------------------------5--3-2----------5-5-|
-----2--2-2------2-2------1-1----0h1p0-1-------2--2-2---3-2----2-2-|
-----2--2-2------2-2-------2-2--------2-2------2--2-2----------2-2-|
-------------------------------------------------------------------|
--0--0--0--2h3--0--------------------------0---0--0-----0-----0----|
----------------------0h2-------0h2--------------------------------|
[ Tab from: http://www.guitaretab.com/k/keith-richards/174403.html ]
--9-----12p10p9--7-----10p8p7----------------------------------|
---12---------9-----10------7-------5--4--3--2-----------------|
---------------------------------------------------------------|
--9--9--9--------7--7--7------------5--4--3--2-----------------|
---------------------------------0--0--0--0--0-------0--0--0---|
------------------------------------------------3b-------------|

-/9----------9-8-9----5--3-2------5-5----9-----12p10p9------10-10-9-9-|
-/8----------8-7-8----2--2-2------2-2-----12---------9----------------|
-/9----------9-8-9----2--2-2------2-2---------------------------------|
-----------------------------------------9--9--9------------9--9--9-9-|
-0--0--0--0--0---0--0--0--2h3--0---------------------11-12------------|
----------------------------------------------------------------------|


---------------------------------0----------------------------------0--3--|
----------------------------------/5~---1-1-------5--4--3--2-----------2--|
-----------------------------------------2-2---------------------------2--|
-2-2-----2-2-2-4-2-5-2----------------------------5--4--3--2-----------2--|
-0-0-3h4-0-0-0-0-0-0-0-3h4---------------------0--0--0--0--0-----0--0--0--|
-----------------------------0h2-----0h2----------------------3b----------|

--------------------
Related for 32-20 Blues tab
32-20 Blues chords by Keith Richards