Song name
# A B C D E F G H I J K L M N O P Q R S T U V W X Y Z

Kelly Clarkson - Because Of You Acoustic tab

Hey, I did this acoustic version for Because of You and I really enjoyed the result so I 
wanted to share it. Its my first tab, hope you like it!

The chords are:

Intro: Em  Cadd9  D

Verses: G  D/F#  Em  D/F#

Chorus: Em  Cadd9  D
        Cadd9  G   D
        Cadd9    D

Intro

e -----------|-----------|-----------|-----------|----------|
b --0-----0--|--3-----3--|--3-----3--|--3-----3--|----------|
g ----0------|----0------|----2------|----2------|----------|  (2x)
d -----------|-----------|-----------|-----------|----------|
a --2---2----|--3---3----|--0---0----|--0---0----|----------|
e -----------|-----------|-----------|-----------|----------|

Verse

e -----------|-----------|-----------|-----------|----------|
b ------3----|------3----|------0----|------3----|----------|
g ----0----0-|----2----2-|----0----0-|----2----2-|----------|  (4x)
d -----------|-----------|-----------|-----------|----------|
a -----------|-----------|--2----2---|-----------|----------|
e --3----3---|--2----2---|-----------|--2----2---|----------|

Chorus

e -----------|-----------|-----------|-----------|----------|
b --0-----0--|--3-----3--|--3-----3--|--3-----3--|----------|
g ----0------|----0------|----2------|----2------|----------|  (2x)
d -----------|-----------|-----------|-----------|----------|
a --2---2----|--3---3----|--0---0----|--0---0----|----------|
e -----------|-----------|-----------|-----------|----------|

e -----------|-----------|-----------|--2--------|----------|
b --3-----3--|--3-----3--|--3-----3--|---3-------|----------|
g ----0------|----0------|----2------|----2------|----------|
d -----------|-----------|-----------|-----------|----------|
a --3---3----|--2---2----|--0---0----|------0----|----------|
e -----------|-----------|-----------|-----------|----------|

e -----------|-----------|-----------|-----------|----------|
b --3-----3--|--3-----3--|--3--------|-----------|----------|
g ----0------|----0------|-----------|-----------|----------|
d -----------|-----------|-----------|-----------|----------|
a --3---3----|--3---3----|--0--------|-----------|----------|
e -----------|-----------|-----------|-----------|----------|

Verse

e -----------|-----------|-----------|-----------|----------|
b ------3----|------3----|------0----|------3----|----------|
g ----0----0-|----2----2-|----0----0-|----2----2-|----------|  (4x)
d -----------|-----------|-----------|-----------|----------|
a -----------|-----------|--2----2---|-----------|----------|
e --3----3---|--2----2---|-----------|--2----2---|----------|


"I watched you die..."

Bm Em D (4x)



e -----------|-----------|-----------|-----------|----------|
b --0-----0--|--3-----3--|--3-----3--|--3-----3--|----------|
g ----0------|----0------|----2------|----2------|----------|  (2x)
d -----------|-----------|-----------|-----------|----------|
a --2---2----|--3---3----|--0---0----|--0---0----|----------|
e -----------|-----------|-----------|-----------|----------|

e --0-----0--|--3-----3--|--2-----2--|--2-----2--|----------|
b ----0------|----3------|----3------|----3------|----------|
g -----------|-----------|-----------|-----------|----------|  (2x)
d -----------|-----------|-----------|-----------|----------|
a --2---2----|--3---3----|--0---0----|--0---0----|----------|
e -----------|-----------|-----------|-----------|----------|

e --3-----3--|--3-----3--|--2-----2--|--2-----2--|----------|
b ----3------|----3------|----3------|----3------|----------|
g -----------|-----------|-----------|-----------|----------|
d -----------|-----------|-----------|-----------|----------|
a --3---3----|--2---2----|--0---0----|--0----0---|----------|
e -----------|-----------|-----------|-----------|----------|

e --3-----3--|--3-----3--|--2--------|-----------|----------|
b ----3------|----3------|-----------|-----------|----------|
g -----------|-----------|-----------|-----------|----------|
d -----------|-----------|-----------|-----------|----------|
a --3---3----|--3---3----|--0--------|-----------|----------|
e -----------|-----------|-----------|-----------|----------|


the end "ooh ooh..."
e -----------|-----------|-----------|--2--------|----------|
b --0-----0--|--3-----3--|--3-----3--|---3-------|----------|
g ----0------|----0------|----2------|----2------|----------|
d -----------|-----------|-----------|-----------|----------|
a --2---2----|--3---3----|--0---0----|------0----|----------|
e -----------|-----------|-----------|-----------|----------|

e -----------|-----------|-----------|-----------|----------|
b --0-----0--|--3-----3--|--3-----3--|--3-----3--|--3-------|
g ----0------|----0------|----2------|----2------|----------|
d -----------|-----------|-----------|-----------|----------|
a --2---2----|--3---3----|--0---0----|--0---0----|--3-------|
e -----------|-----------|-----------|-----------|----------|
Tap to rate this tab
# A B C D E F G H I J K L M N O P Q R S T U V W X Y Z