Song name
# A B C D E F G H I J K L M N O P Q R S T U V W X Y Z

Kenny Wayne Shepherd - Oh Well tab

                          KENNY WAYNE SHEPHERD
                                OH WELL

standard tuning

--------------------------------------------------------------------|
--------------------------------------------------------------------|
--------------------------------------------------------------------|
---------0-0-0-------------2-2----------0-0-0-------2-2---2-2-------|
-----0h2-------0h2p0----------------0h2-------0h2p0-----------------|
-0h3-----------------3p0-0------0h3---------------------0-----------|


next comes a part like this
-----------------------------------------------------------|
-----------------------------------------------------------|
-----xx------xx-----xx----------------------7---7---7-9----|
-----xx------xx-----xx----------7-8-9-7-8-9---9---9---x----|
-5h7-xx-10p7-xx-5h7-xx-----7-10-----------------------7----|
-----xx------xx-----xx-0------------------------------0----|

thats it
peace
Tap to rate this tab
 
# A B C D E F G H I J K L M N O P Q R S T U V W X Y Z