Guitaretab - guitar tabs
Song name
# A B C D E F G H I J K L M N O P Q R S T U V W X Y Z

Kenny Wayne Shepherd - Them Changes tab

		Them ChangesTabbed by:sheat
Email:

Tuning:standard

e|----------------------Main riff ------------------------------------------|
B|------------8-------------------------------------------------------------|
G|--9---9----------9----7--------------------------7------------------------|
D|--------------------------10---7---7----9----9-------9---7----------------|
A|-----------------------------------------------------------10--7---7------|
E|--------------------------------------------------------------------------|
[ Tab from: http://www.guitaretab.com/k/kenny-wayne-shepherd/60747.html ]
e|-------------------------Riff 2--------------------------------------------|
B|---------------------------------------------------------------------------|
G|---------------------------------------------------------------------------|
D|---------------------------------------------------------------------------|
A|--------------------------7-9--7------------------------------7---9--7-----|
E|----0---0-----7---7----9----------0----0-----7---7--9----------------------|



e|-------------------------------Intro--------------------------------------|
B|--------8----7------------------------8-----------------------------------|
G|-----------------7----6---6---7---9---------------------------------------|
D|--------------------------------------------------------------------------|
A|--------------------------------------------------------------------------|
E|--------------------------------------------------------------------------|


| /  slide up
| \  slide down
| h  hammer-on
| p  pull-off
| ~  vibrato
| +  harmonic
| x  Mute note
===============================================================================
Related for Them Changes tab
Advertisement will be closed in 10 seconds