Song name
# A B C D E F G H I J K L M N O P Q R S T U V W X Y Z

Kevin Devine - Between The Concrete And Clouds tab

Tuning: 1/2 step down
Verse
e|--0----0----0----1----0------------------------------------------------------|
B|--1----0----1----1----0------------------------------------------------------|
G|--2----1----2----2----1------------------------------------------------------|
D|--2----2----0----3----2------x4----------------------------------------------|
A|--0----0----0----3----2------------------------------------------------------|
E|------------2----1-----------------------------------------------------------|
Pre chorus
e|--5---3---------------------------------------|
B|--6---3---------------------------------------|
G|--7---4---------------------------------------|
D|--7---5---x2----------------------------------|
A|--5---5---------------------------------------|
E|------3---------------------------------------|
chorus
e|--0--0--3--0--3--1--3--0--1-----0--0--3--0--1----------------|
B|--0--1--0--1--0--1--3--1--1--9--1--1--0--1--1--9-------------|
G|--1--2--0--2--0--2--4--0--2--9--2--2--0--0--2--9-------------|
D|--2--2--0--3--0--3--5--2--3--9--2--3--0--2--3--9-------------|
A|--2--0--x--3--x--3--5--3--3--7--0--3--x--3--3--7-------------|
E|--------3-----3--1--3-----1-----------3--3--1----------------|
post chorus
e|---0--0--3p0--1--0---------------------------|
B|---1--0--1----1--1---------------------------|
G|---2--1--2----2--2-----x2--------------------|
D|---2--2--0----3--2---------------------------|
A|---0--0--0----3--0---------------------------|
E|---------2----1------------------------------|
Verse 2
e|--0----0----0----1----0----------------------|
B|--1----0----1----1----0----------------------|
G|--2----1----2----2----1----------------------|
D|--2----2----0----3----2------x4--------------|
A|--0----0----0----3----2----------------------|
E|------------2----1---------------------------|
pre chorus
e|--5---3------------------------------------------|
B|--6---3------------------------------------------|
G|--7---4------------------------------------------|
D|--7---5---x2-------------------------------------|
A|--5---5------------------------------------------|
E|------3------------------------------------------|
chorus
e|--0--0--3--0--3--1--3--0--1-----0--0--3--0--1---------------|
B|--0--1--0--1--0--1--3--1--1--9--1--1--0--1--1--9------------|
G|--1--2--0--2--0--2--4--0--2--9--2--2--0--0--2--9------------|
D|--2--2--0--3--0--3--5--2--3--9--2--3--0--2--3--9------------|
A|--2--0--x--3--x--3--5--3--3--7--0--3--x--3--3--7------------|
E|--------3-----3--1--3-----1-----------3--3--1---------------|
post chorus
e|---0--0--3p0--1--0------------------------------|
B|---1--0--1----1--1-----s10--s9------------------|
G|---2--1--2----2--2-----s10--s9---x2-------------|
D|---2--2--0----3--2-----s10--s9------------------|
A|---0--0--0----3--0-----s8---s7------------------|
E|---------2----1---------------------------------|
pre chorus
e|--5---3-------------------|
B|--6---3-------------------|
G|--7---4-------------------|
D|--7---5---x2--------------|
A|--5---5-------------------|
E|------3-------------------|
chorus
e|--0--0--3--0--3--1--3--0--1-----0--0--3--0--1--------------------|
B|--0--1--0--1--0--1--3--1--1--9--1--1--0--1--1--9-----------------|
G|--1--2--0--2--0--2--4--0--2--9--2--2--0--0--2--9-----------------|
D|--2--2--0--3--0--3--5--2--3--9--2--3--0--2--3--9-----------------|
A|--2--0--x--3--x--3--5--3--3--7--0--3--x--3--3--7-----------------|
E|--------3-----3--1--3-----1-----------3--3--1--------------------|

e|----0--0--3--0--0-----0--1--3--0--1------------------------------|
B|----1--1--0--1--1--9--1--1--0--1--1--9---------------------------|
G|----2--2--0--0--2--9--2--2--0--0--2--9---------------------------|
D|----2--3--0--2--3--9--2--3--0--2--3--9---------------------------|
A|----0--3--x--3--3--7--0--3--x--3--3--7---------------------------|
E|----------3--3-----------1--3-----1------------------------------|
outro
e|---0--1--0--0--0--3p0--1--0--0----|
B|---1--1--0--1--0--1----1--0--1----|
G|---2--2--1--2--1--2----2--1--2----|
D|---0--3--2--2--2--0----3--2--2----|
A|---0--3--2--0--0--0----3--2--0----|
E|---2--1-----------2----1----------|
Tap to rate this tab
# A B C D E F G H I J K L M N O P Q R S T U V W X Y Z