Song name
# A B C D E F G H I J K L M N O P Q R S T U V W X Y Z

Kevin Rudolf - Welcome To The World tab

Hello, This is the Welcome to the world, by Kevin Ruldolf, Its real simple, if you 
to the song you will hear this in the background son sommin like a keyboard, but this is how 
play it on guitar.

Standard tuneing
EADGBe

e(--------------------------)
B(-----------------10-------)
G(-8-8-8--8-8-10-11---11-10-)
D(--------------------------)
A(--------------------------)
E(--------------------------)

e(--------------------------)
B(----------------11--------)
G(-8-8-10-10-8-10----11-10-8)
D(--------------------------)
A(--------------------------)
E(--------------------------)

Thanks please rate.
Tap to rate this tab
 
# A B C D E F G H I J K L M N O P Q R S T U V W X Y Z