Song name
# A B C D E F G H I J K L M N O P Q R S T U V W X Y Z

Kevin Sherwood Elena Siegman - Coming Home tab

Coming Home. by Kevin Sherwood & Elena Siegman


Kevin's facebook - http://www.facebook.com/ksherwoodops
Elena's facebook - http://www.facebook.com/elenasiegman


I tabbed this myself by ear
so this is not 100% correct
I hope this helps, as this is the first tab here!
Check out my YouTube channel 'Gr0up115'. I will be doing a guitar cover!


Youtube -
INTRO

e---------------------------------------------------|
B---------------------------------------------------|
G---------------------------------------------------|
D-------------------------------------(drums start)-|
A---------------------------------------------------|
E--0-1-0-2-0-3-0-2-0-1-0-2-0-3-0-1----0-2-0-3-0-1---|


e---------------------------------------------------|
B---------------------------------------------------|
G---------------------------------------------------|
D---------------------------------------------------|
A---------------------------------------------------|
E--0-1-0-2-0-3-0-2-0-1-0-2-0-3-0-1-----2-0-3-0-1----|


e---------------------------------------------------|
B---------------------------------------------------|
G---------------------------------------------------|
D---------------------------------------------------|
A---------------------------------------------------|
E--0-1-0-2-0-3-0-2-0-1-0-2-0-3-0-1----0-2-0-3-0-1---|


e---------------------------------------------------|
B---------------------------------------------------|
G---------------------------------------------------|
D---------------------------------------------------|
A---------------------------------------------------|
E--0-1-0-2-0-3-0-2-0-1-0-2-0-3-0-1-------0-3-0-1----|





e------------------------------------------|
B------------------------------------------|
G------------------------------------------|
D------------------------------------------|
A------------------------------------------|
E--000--0000--00H1----000--0000--00h1------| x4



e----------------------------------|
B----------------------------------|
G----------------------------------|
D----------------------------------|
A----------------------------------|
E--0-1-2-0-2-3-2-0-----------------|


VERSE 1
e--------------------------------------------------|
B--------------------------------------------------|
G--------------------------------------------------|
D--------------------------------------------------|
A--------------------------------------------------|
E--00203202---00203202---00203202---002032002------| X2


PRE-CHORUS
e------------------------------------------|
B------------------------------------------|
G------------------------------------------|
D------------------------------------------|
A------------------------------------------|
E--000--0000--00H1----000--0000--00h1------| X2


e---------------------------------------|
B---------------------------------------|
G---------------------------------------|
D--0----0-----0----0-----0----0---0-----|
A----55---55----5----55----55---5-------|
E---------------------------------------|

CHORUS
e--------------------------  e--------------------------|
B--------------------------  B--------------------------|
G--------------------------  G--------------------------|
D---------7b-----7/8b------  D---------7b-----7/8b------|
A--4-5-4------5------------  A--4-5-4------5------------|
E--2-3-2------3------------  E--2-3-2------3------------|



VERSE 2
e--------------------------------------------------|
B--------------------------------------------------|
G--------------------------------------------------|
D--------------------------------------------------|
A--------------------------------------------------|
E--00203202---00203202---00203202---002032002------| X1



PRE-CHORUS
e------------------------------------------|
B------------------------------------------|
G------------------------------------------|
D------------------------------------------|
A------------------------------------------|
E--000--0000--00H1----000--0000--00h1------| X1



e------------------------------------------|
B------------------------------------------|
G------------------------------------------|
D------------------------------------------|
A------------------------------------------|
E--000--0000--00H1----000--0000------------| X1


CHORUS
e--------------------------  e--------------------------|
B--------------------------  B--------------------------|
G--------------------------  G--------------------------|
D---------7b-----7/8b------  D---------7b-----7/8b------|
A--4-5-4------5------------  A--4-5-4------5------------|
E--2-3-2------3------------  E--2-3-2------3------------|


e---------------------------------------------|
B---------------------------------------------|
G---------------------------------------------|
D------pm------------pm-----------------------|
A--3333-3--7~9~--3333--3--9~11~---------------|
E--1111-1--------1111--1----------------------|


e------------------------------------------|
B------------------------------------------|
G------------------------------------------|
D--0-1-2-1-0-1-3-1-0---0-2-3-2-0-3-5-3-2---|
A------------------------------------------|
E------------------------------------------|


e--------------------------|
B--------------------------|
G--------------------------|
D--7-5-5-3-----------------|
A--------------------------|
E--------------------------|


CHORUS
e--------------------------  e--------------------------|
B--------------------------  B--------------------------|
G--------------------------  G--------------------------|
D---------7b-----7/8b------  D---------7b-----7/8b------|
A--4-5-4------5------------  A--4-5-4------5------------|
E--2-3-2------3------------  E--2-3-2------3------------|


e----------------------------------------------|
B---(plays with the riff below)----------------|
G----------------------------------------------|
D---0000000000000000000000000000000000000000---|
A----------------------------------------------|
E----------------------------------------------|


e------------------------------------------|
B------------------------------------------|
G------------------------------------------|
D------------------------------------------|
A------------------------------------------|
E--000--0000--00H1----000--0000--00h1------| X9



e------------------------------------------|
B------------------------------------------|
G------------------------------------------|
D------------------------------------------|
A------------------------------------------|
E------000--0000---------------------------| X1


Thank's!
Tap to rate this tab
# A B C D E F G H I J K L M N O P Q R S T U V W X Y Z