Song name
# A B C D E F G H I J K L M N O P Q R S T U V W X Y Z

Kids In Glass Houses - Giving Up tab

Artist: Kids in glass houses
Song: Giving up
Album: DIRT

This is my first tab, all done by ear, constructive critism is welcome.
Its only the intro riff but the rest isn't too hard to figure out plus it will 
help develop you to your ears.

Tuning: eb Bb Gb Db Ab Eb


eb|---------------------------------|
Bb|------2------2--------2-------2--|
Gb|----2---2--4---2---------2-4----2|
Db|---------------------------------|
Ab|-0------------------0------------|
Eb|---------------------------------|

eb|---------------------------------|
Bb|------2------2--------2-------2--|
Gb|----2---2--4---2---------2-4----2|
Db|---------------------------------|
Ab|-2------------------2------------|
Eb|---------------------------------|

eb|---------------------------------|
Bb|------2------2--------2-------2--|
Gb|----2---2--4---2---------2-4----2|
Db|---------------------------------|
Ab|-5------------------5------------|
Eb|---------------------------------|

eb|--------------------0------------|
Bb|------2------2--------2---3-2----|
Gb|----2---2--4---2--------2--------|
Db|---------------------------------|
Ab|-0-------------------------------|
Eb|---------------------------------|
Tap to rate this tab
 
# A B C D E F G H I J K L M N O P Q R S T U V W X Y Z