Song name
# A B C D E F G H I J K L M N O P Q R S T U V W X Y Z

Kids In The Way - Love tab

All strings tuned down a WHOLE step.
It's an awkward strumming`pattern but its easy to get when you listen to it 
with the CD.

Verse  (Clean!)
  Cm              F    G    G#
e|----------------------------------|
b|-4-4-4--4-------------------------|
g|-5-5-5--0------------------5-5-5--|
d|-5-5-5--5--5-5---3-3--5-5--6-6-6--| 3x
a|-3-3-3--3--3-3---3-3--5-5--6-6-6--|
E|--------6--4-4---1-1--3-3--4-4-4--|

Now Chorus! listen to timing and you will get it! you people are smart 
enough to understand this right? good! Chorus is in distortion!
   D#      C     G#    F    G#   D#
e|-----------------------------------|
b|-----------------------------------|
g|-8-8-8--5-5-5----------------------| 2x
d|-8-8-8--5-5-5--6--3-3-3--6-6--8-8--|
a|-6-6-6--3-3-3--6--3-3-3--6-6--8-8--|
E|---------------4--1-1-1--4-4--6-6--|

The 2nd verse is the same as the first one.
and so is the chorus. then the bridge!

Bridge

e|--------------------------|---------------------------------|
b|--------------------------|---------------------------------|
g|-5-5--7-7--8-8--10-10-----|--5-5--7-7--8-8--10-10--5-5--6-6-|
d|-5-5--7-7--8-8--10-10--8--|--5-5--7-7--8-8--10-10--5-5--6-6-|
a|-3-3--5-5--6-6--8--8---8--|--3-3--5-5--6-6--8--8---3-3--4-4-|
E|-----------------------6--|---------------------------------|
Now for the octaves! very easy

e|-----------------------------|
b|-----------------------------|
g|-13-13---12-12--10-10-10-10--|
d|-x--x----x--x---x--x--x--x---|
a|-11-11---10-10--8--8--8--8---|
E|-----------------------------|
Tap to rate this tab
 
# A B C D E F G H I J K L M N O P Q R S T U V W X Y Z