Song name
# A B C D E F G H I J K L M N O P Q R S T U V W X Y Z

Kill The Lycan - Horizon tab

Kill The Lycan - Horizon
http://artistcamp.rebeat.com/kill-the-lycan/avalanche/9008798058389/index.html 
http://www.facebook.com/killthelycan
Tuning: Drop A# 
Guitar 1 = "lead guitar" 
Guitar 2 = "rhythm guitar" 
 
Both guitars

C |------------------------------------------------------|
G |------------------------------------------------------|
D#|------------------------------------------------------|
A#|-0----------------------------------------------------|
F |-0----------------------------------------------------|
A#|-0----------------------------------------------------|

Guitar 1: (when blast beat kicks in both guitars play the lead)

C |------------------------------------------------------|
G |------------------------------------------------------|
D#|------------------------------------------------------|
A#|-------7-------5h8------------------------------------|
F |-5p0-------8-----------7h8-4h5------------------------|
A#|-----0---0---0-----0-0--------------------------------|

C |------------------------------------------------------|
G |------------------------------------------------------|
D#|-----------------------7h10----------6h9--------------|
A#|-------7-------5h8----------7h8-----------------------|
F |-5p0-------8--------------------7h10------------------|
A#|-----0---0---0-----0-0--------------------------------|

Verse 1:

Both guitars:

C |-----------------------------------------------------------------|
G |-----------------------------------------------------------------|
D#|-----------------------------------------------------------------|
A#|-------------3---------------3-------------------7---------------| 
F |-5-----5--3-7---5----5---3-7---5-----7---8---7-------0h7h8-0h3h5-|
A#|---0-0--0--------0-0---0---------5-5---5---5---7---7-------------|


"remember the days.."

Both guitars:

C |------------------------------------------------------|
G |------------------------------------------------------|
D#|------------------------------------------------------|
A#|------------------------------------------------------|
F |----8-7-5---------------------5h8p5-----7h10p5--------|
A#|-0~-------7-0-5h7h8---0~--0-0-------0-0---------------|


"go..." (Breakdown figure)

C |------------------------------------------------------|
G |------------------------------------------------------|
D#|--------------------------------10-9------------------|
A#|--------7-------3----------10--------10---------------|
F |------8---8---7---7-----------8-----------------------|
A#|-0~------------------0~--8----------------------------|

"and I ask myself.."

C |----------------------------------------------------------------------|
G |----------------------------------------------------------------------|
D#|-----------------------------------------------10-9-------------------|
A#|---10------8-7-----3-------3-----10------8-7--------10----10-10h12p10-|
F |------8----------7---7---3---3------8------------------12-------------|
A#|-8------10-----0-------3-------8------10-----0------------------------|


C |-------------------------------------------------------|
G |-------------------------------------------------------|
D#|-------------------------------------------------------|
A#|---10------8-7---------------10------14----------------|
F |------8-------------------------8-------10-------------|
A#|-8------10-----0-0000-0000-8------10-------0-0000-0000-|

Interlude:

C |------------------------------------------------------|
G |------------------------------------------------------|
D#|------------------------------------------------------|
A#|-3-----5----------------------------------------------|
F |-3-8x--3-8x-------------------------------------------|
A#|-3-----2----------------------------------------------|

Final Riff

Guitar 1:

C |-------------------------------------------------------------------|
G |-------------------------------------------------------------------|
D#|-------------12-9----9----9----------------------------------------|
A#|---10---10--------10---10---10----12----14----15-12----12----12----|
F |-8----8----8-------------------10----10----10-------10----10----10-|
A#|-------------------------------------------------------------------|

C |---------------------------------------------------------------|
G |---------------------------------------------------------------|
D#|---------------------------------------------------------------|
A#|---9---9---9h10---10---10------10----10----10-12----10----9----|
F |-0---0---0------0----0----0-10----10----10-------10----10---10-|
A#|---------------------------------------------------------------|

Guitar 2:

C |------------------------------------------------------|
G |------------------------------------------------------|
D#|------------------------------------------------------|
A#|-3------5------7------5-------------------------------|
F |-3-x12--5-x12--7-x12--5-x12---------------------------|
A#|-3------5------7------5-------------------------------|

Guitar 3: Lead

C |----------15-------------12---------------------------|
G |----13-------13----13-------13------------------------|
D#|-14----14-------14----14------------------------------|
A#|------------------------------------------------------|
F |------------------------------------------------------|
A#|------------------------------------------------------|
Tap to rate this tab
 
# A B C D E F G H I J K L M N O P Q R S T U V W X Y Z