Song name
# A B C D E F G H I J K L M N O P Q R S T U V W X Y Z

Killers - Runaways tab

Key of C#
Tempo 4/4, 120 bpm

Tune half-step down, low to high: Eb Ab Db Gb Bb eb


  INTRO

    C#  G#   F#         C#   G#
|| -2---0--|-3----|-3---2--|-0---- ||
|| -3---2--|-3----|-3---3--|-2---- ||
||O-2---2--|-0----|-0---2--|-2----O||
||O-0---2--|-0----|-0---0--|-2----O||
|| -----0--|-2----|-2------|-0---- ||
|| --------|-3----|-3------|------ ||x2



  VERSE I

    C#  G#   F#         C#   G#
|| -2---0--|-3----|-3---2--|-0---- ||
|| -3---2--|-3----|-3---3--|-2---- ||
||O-2---2--|-0----|-0---2--|-2----O||
||O-0---2--|-0----|-0---0--|-2----O||
|| -----0--|-2----|-2------|-0---- ||
|| --------|-3----|-3------|------ ||x2


C#            G#              F#
Blonde hair blowing in the summer wind
              C#           G#
The blue-eyed girl playing in the sand
     C#        G#          F#      
I've been on a trail for a little while
                 C#             G#                      
But that was the night that she broke down and held my-



  VERSE II

    F#          A#m         D#m         G#m       F#          A#m    
|-3--3--3---|-2--2--2-2-|-0--0--0-0-|-0--0--0-0-|-3--3--3---|-2--2--2-2-|
|-3--3--3---|-3--3--3-3-|-0--0--0-0-|-2--2--2-2-|-3--3--3---|-3--3--3-3-|
|-0--0--0-0-|-4--4--4-4-|-0--0--0-0-|-2--2--2-2-|-0--0--0-0-|-4--4--4-4-|
|-0--0--0-0-|-4--4--4-4-|-2--2--2-2-|-2--2--2-2-|-0--0--0-0-|-4--4--4-4-|
|-2--2--2-2-|-2--2--2-2-|-2--2--2-2-|-0--0--0-0-|-2--2--2-2-|-2--2--2-2-|
|-3--3--3-3-|-----------|-0--0--0-0-|-----------|-3--3--3-3-|-----------|

  F#
 -hand
         A#m
Teenage rush, she said
D#m                 G#
 "Ain't we all just runaways?"
        F#m                 A#m
We got time but that ain't much


    G#                                                     
|| -17-17-17-17-17-17-17-17-17-17-17-17-17-17-17-17- ||
|| -15-15-15-15-15-15-15-15-15-15-15-15-15-15-15-15- ||
||O-14-14-14-14-14-14-14-14-14-14-14-14-14-14-14-14-O||
||O-X--X--X--X--X--X--X--X--X--X--X--X--X--X--X--X--O||
|| -0--0--0--0--0--0--0--0--0--0--0--0--0--0--0--0-- ||
|| ------------------------------------------------- ||

   
    F#
|| -17-17-17-17-17-17-17-17-17-17-17-17-17-17-17-17- ||
|| -15-15-15-15-15-15-15-15-15-15-15-15-15-15-15-15- ||
||O-X--X--X--X--X--X--X--X--X--X--X--X--X--X--X--X--O||
||O-0--0--0--0--0--0--0--0--0--0--0--0--0--0--0--0--O||
|| -14-14-14-14-14-14-14-14-14-14-14-14-14-14-14-14- ||
|| -15-15-15-15-15-15-15-15-15-15-15-15-15-15-15-15- ||


         G#          F#
We can't wait 'til tomorrow



  PRE-CHORUS

  G#                A#m                             F#                C#
|-17-17-17-17-17-17-17-17-17-17-17-17-17-17-17-17-|-17-17-17-17-17-17-17-17-17-17-17-17-17-17-17-17-|
|-15-15-15-15-15-15-15-15-15-15-15-15-15-15-15-15-|-15-15-15-15-15-15-15-15-15-15-15-15-15-15-15-15-|
|-14-14-14-14-14-14-14-14-14-14-14-14-14-14-14-14-|-14-14-14-14-14-14-14-14-14-14-14-14-14-14-14-14-|
|-X--X--X--X--X--X--X--X--X--X--X--X--X--X--X--X--|-0--0--0--0--0--0--0--0--0--0--0--0--0--0--0--0--|
|-0--0--0--0--0--0--14-14-14-14-14-14-14-14-14-14-|-14-14-14-14-14-14-X--X--X--X--X--X--X--X--X--X--|
|-------------------------------------------------|-15-15-15-15-15-15-14-14-14-14-14-14-14-14-14-14-|
                                                    use your thumb for the low notes

          G#                A#m
You gotta know that this is real
      F#            C#
Baby, why you wanna fight it?


  A#m                                             F#
|-------------------------------------------------|-17-17-17-17-17-17-17-17-17-17-17-17-17-17-17-17-|
|-17-17-17-17-17-17-19-19-19-19-19-19-20-20-20-20-|-15-15-15-15-15-15-15-15-15-15-15-15-15-15-15-15-|
|-16-16-16-16-16-16-18-18-18-18-18-18-19-19-19-19-|-14-14-14-14-14-14-14-14-14-14-14-14-14-14-14-14-|
|-X--X--X--X--X--X--X--X--X--X--X--X--X--X--X--X--|-0--0--0--0--0--0--0--0--0--0--0--0--0--0--0--0--|
|-14-14-14-14-14-14-16-16-16-16-16-16-17-17-17-17-|-14-14-14-14-14-14-14-14-14-14-14-14-14-14-14-14-|
|-------------------------------------------------|-15-15-15-15-15-15-15-15-15-15-15-15-15-15-15-15-|


         A#m                 F#          
It's the one thing you can't choose 

               P.M.----------|  
  G#5 A#5   F# 
|---------|-3----------------|
|---------|-3----3---3-2---3-|
|-2---4---|-0--4---4-----4---|
|-2---4---|-0----------------|
|-0---2---|-2----------------|
|---------|-3----------------|


   G#5 A#5 F#
Oh!



  VERSE III

 P.M.------------------------------------------------------------------|
  G#5   A#5         F#5                     C#5         G#5              
|-----------------|-----------------|-----------------|-----------------|
|-----------------|-----------------|-----------------|-----------------|
|-----------------|-----------------|-----------------|-----------------|
|-----------------|-----------------|-------7-7-7-7-7-|-----------------|
|-7-7-7-9-9-9-9-9-|-5-5-5-5-5-5-5-5-|-5-5-5-5-5-5-5-5-|-7-7-7-7-7-7-7-7-|
|-5-5-5-7-7-7-7-7-|-3-3-3-3-3-3-3-3-|-3-3-3-----------|-5-5-5-5-5-5-5-5-|
|
|
|P.M.------------------------------------------------------------------|
|-----------------|-----------------|-----------------|-----------------|
|-----3---3-2---3-|-----3---3-2---3-|-----3---3-2---3-|-----3---3-2---3-|
|---4---4-----4---|---4---4-----4---|---4---4-----4---|---4---4-----4---|
|-----------------|-----------------|-----------------|-----------------|
|-----------------|-----------------|-----------------|-----------------|
|-----------------|-----------------|-----------------|-----------------|

G#5     A#5         F#5
We got engaged on a friday night
             C#5           G#5
I swore on the head of our unborn child


 P.M.------------------------------------------------------------------|
 C#5    G#5         F#5                     C#5         G#5
|-----------------|-----------------|-----------------|-----------------|
|-----------------|-----------------|-----------------|-----------------|
|-----------------|-----------------|-----------------|-----------------|
|-7-7-7-----------|-----------------|-------7-7-7-7-7-|-----------------|
|-5-5-5-7-7-7-7-7-|-5-5-5-5-5-5-5-5-|-5-5-5-5-5-5-5-5-|-7-7-7-7-7-7-7-7-|
|-------5-5-5-5-5-|-3-3-3-3-3-3-3-3-|-3-3-3-----------|-5-5-5-5-5-5-5-5-|
|
|
|P.M.------------------------------------------------------------------|
|-----------------|-----------------|-----------------|-----------------|
|-----3---3-2---3-|-----3---3-2---3-|-----3---3-2---3-|-----3---3-2---3-|
|---4---4-----4---|---4---4-----4---|---4---4-----4---|---4---4-----4---|
|-----------------|-----------------|-----------------|-----------------|
|-----------------|-----------------|-----------------|-----------------|
|-----------------|-----------------|-----------------|-----------------|


C#5              G#5          F#5
That I could take care of the three of us
               C#5         G#5                     
But I got the tendency to slip when the nights gets-



  VERSE IV
                      _________________________________________________       _______________
                     |1.                                                     |2.
 P.M.----------------------------------------------------------------------------------------|
  F#5               A#5               D#5               G#5                   A#5
|| -----------------|-----------------|-----------------|----------------- ||-----------------|
|| -----------------|-----------------|-----------------|----------------- ||-----------------|
||O-----------------|-----------------|-----------------|-----------------O||-----------------|
||O-----------------|-----------------|-9-9-9-9-9-9-9-9-|-----------------O||-----------------|
|| -5-5-5-5-5-5-5-5-|-9-9-9-9-9-9-9-9-|-7-7-7-7-7-7-7-7-|-7-7-7-7-7-7-7-7- ||-9-9-9-9-9-9-9-9-|
|| -3-3-3-3-3-3-3-3-|-7-7-7-7-7-7-7-7-|-----------------|-5-5-5-5-5-5-5-5- ||-7-7-7-7-7-7-7-7-|
|
|
| let ring  chorus          chorus        chorus                                 chorus
|| ----------------|-----0h2-(0h2)----|-3---(3)---------|----------------- ||-----------------|
|| ------3-----(3)-|---3--------------|-----------------|-3-------2------- ||-0---(0)---------|
||O----0----(0)----|-4----------------|-----------------|-----------------O||-----------------|
||O----------------|------------------|-----------------|-----------------O||-----------------|
|| ----------------|------------------|-----------------|----------------- ||-----------------|
|| --3-------------|------------------|-----------------|----------------- ||-----------------|


  F#5
 -wild
           A#5
It's in my blood
D#5                       G#5
  She said she might just runaway
          F#5              A#5
Somewhere else, some place good


    G#                                                     
|| -17-17-17-17-17-17-17-17-17-17-17-17-17-17-17-17- ||
|| -15-15-15-15-15-15-15-15-15-15-15-15-15-15-15-15- ||
||O-14-14-14-14-14-14-14-14-14-14-14-14-14-14-14-14-O||
||O-X--X--X--X--X--X--X--X--X--X--X--X--X--X--X--X--O||
|| -0--0--0--0--0--0--0--0--0--0--0--0--0--0--0--0-- ||
|| ------------------------------------------------- ||

   
    F#
|| -17-17-17-17-17-17-17-17-17-17-17-17-17-17-17-17- ||
|| -15-15-15-15-15-15-15-15-15-15-15-15-15-15-15-15- ||
||O-X--X--X--X--X--X--X--X--X--X--X--X--X--X--X--X--O||
||O-0--0--0--0--0--0--0--0--0--0--0--0--0--0--0--0--O||
|| -14-14-14-14-14-14-14-14-14-14-14-14-14-14-14-14- ||
|| -15-15-15-15-15-15-15-15-15-15-15-15-15-15-15-15- ||


         G#          F#
We can't wait 'til tomorrow



  PRE-CHORUS

  G#                A#m                             F#                C#
|-17-17-17-17-17-17-17-17-17-17-17-17-17-17-17-17-|-17-17-17-17-17-17-17-17-17-17-17-17-17-17-17-17-|
|-15-15-15-15-15-15-15-15-15-15-15-15-15-15-15-15-|-15-15-15-15-15-15-15-15-15-15-15-15-15-15-15-15-|
|-14-14-14-14-14-14-14-14-14-14-14-14-14-14-14-14-|-14-14-14-14-14-14-14-14-14-14-14-14-14-14-14-14-|
|-X--X--X--X--X--X--X--X--X--X--X--X--X--X--X--X--|-0--0--0--0--0--0--0--0--0--0--0--0--0--0--0--0--|
|-0--0--0--0--0--0--14-14-14-14-14-14-14-14-14-14-|-14-14-14-14-14-14-X--X--X--X--X--X--X--X--X--X--|
|-------------------------------------------------|-15-15-15-15-15-15-14-14-14-14-14-14-14-14-14-14-|
                                                    use your thumb for the low notes

          G#                A#m
You gotta know that this is real
      F#            C#
Baby, why you wanna fight it?


  A#m                                             F#
|-------------------------------------------------|-17-17-17-17-17-17-17-17-17-17-17-17-17-17-17-17-|
|-17-17-17-17-17-17-19-19-19-19-19-19-20-20-20-20-|-15-15-15-15-15-15-15-15-15-15-15-15-15-15-15-15-|
|-16-16-16-16-16-16-18-18-18-18-18-18-19-19-19-19-|-14-14-14-14-14-14-14-14-14-14-14-14-14-14-14-14-|
|-X--X--X--X--X--X--X--X--X--X--X--X--X--X--X--X--|-0--0--0--0--0--0--0--0--0--0--0--0--0--0--0--0--|
|-14-14-14-14-14-14-16-16-16-16-16-16-17-17-17-17-|-14-14-14-14-14-14-14-14-14-14-14-14-14-14-14-14-|
|-------------------------------------------------|-15-15-15-15-15-15-15-15-15-15-15-15-15-15-15-15-|


         A#m                 F#          
It's the one thing you can't choose 


 P.M.----|
  G#
|-----------------|-0-0-0-0-0-0-0-0-|
|-----------------|-2-2-2-2-2-2-2-2-|
|-2-2-2-2-2-2-2-2-|-2-2-2-2-2-2-2-2-|
|-2-2-2-2-2-2-2-2-|-2-2-2-2-2-2-2-2-|
|-0-0-0-0-0-0-0-0-|-0-0-0-0-0-0-0-0-|
|-----------------|-----------------|


             G#
Let's take a chance

Baby, we can't lose



  CHORUS

    C#  G#   F#         C#   G#
|| -2---0--|-3----|-3---2--|-0---- ||
|| -3---2--|-3----|-3---3--|-2---- ||
||O-2---2--|-0----|-0---2--|-2----O||
||O-0---2--|-0----|-0---0--|-2----O||
|| -----0--|-2----|-2------|-0---- ||
|| --------|-3----|-3------|------ ||x2


                  C#      G#  F#
Ain't we all just runaways?

I knew it when I met you
C#            G#          C#  G#  F#
I'm not gonna let you runaway
                        C#             G#
I knew it when I held I wasn't lettin' go



 VERSE V

  Fm                A#m               F#
|-----------------|-----------------|-----------------|-----------------|
|-2--2--2--2--2---|-3--3--3--3--3---|-3--3--3--3--3---|-3--3--3--3--3---|
|--2--2--2--2--2--|--4--4--4--4--4--|--4--4--4--4--4--|--4--4--4--4--4--|
|---4--4--4--4--4-|---4--4--4--4--4-|---5--5--5--5--5-|---5--5--5--5--5-|
|-----------------|-----------------|-----------------|-----------------|
|-----------------|-----------------|-----------------|-----------------|
|
|
|-----------------|-----------------|-----------------|-----------------|
|-----------------|-----------------|-----------------|-----------------|
|-----------------|-----------------|-----------------|--0--------------|
|-----------------|-----------------|-----------------|----4-2-------0--|
|-----------------|-----------------|-----------------|-----------4-----|
|-----------------|-----------------|-----------------|-----------------|

           Fm
We used to look at the stars 
       A#m
And confess our dreams
          F#
Hold each other 'til the morning light


  C#                A#m               G#                F# hold note
|-2--2--2--2--2---|-2--2--2--2--2---|-0--0--0--0--0---|-3---------------------|-------------------|
|--3--3--3--3--3--|--3--3--3--3--3--|--2--2--2--2--2--|-3---------------------|-------------------|
|---2--2--2--2--2-|---4--4--4--4--4-|---2--2--2--2--2-|-0---------------------|-------------------|
|-----------------|-----------------|-----------------|-0---------------------|-------------------|
|-----------------|-----------------|-----------------|-2---------------------|-------------------|
|-----------------|-----------------|-----------------|-3---------------------|-------------------|
|
|
|-----------------|-----------------|-----------------|-10-10-10-9-9-9--7-7-|-7------------------|
|-----------------|-----------------|-----------------|---------------------|---10-10-10-8-7-----|
|-----------------|-----------------|-----------------|---------------------|----------------9-7-|
|-----------------|-----------------|-----------------|---------------------|--------------------|
|-----------------|-----------------|-----------------|---------------------|--------------------|
|-----------------|-----------------|-----------------|---------------------|--------------------|


   C# 
We used to laugh
       A#m
Now we only fight
G#                     F#
Baby, are you lonesome now?



  VERSE VI

  C#  G#   F#         C#   G#
|-2---0--|-3----|-3---2--|-0----|
|-3---2--|-3----|-3---3--|-2----|
|-2---2--|-0----|-0---2--|-2----|
|-0---2--|-0----|-0---0--|-2----|
|-----0--|-2----|-2------|-0----|
|--------|-3----|-3------|------|
|
|
|let ring
|--------|------|--------|------|
|--------|------|--------|------|
|-7------|------|--------|------|
|-7------|------|--------|------|
|-5------|------|--------|------|
|--------|------|--------|------|


               C#        G#         F#
And at night I come home after they go to sleep
                 C#      G#
Like a stumbling ghost I haunt these halls


  C#         G#          F#                                 C#            G#
|-2----------0---------|-3---------------------|-3----------2-----------|-0--------------------|
|-3----------2---------|-3---------------------|-3----------3-----------|-2--------------------|
|-2----------2---------|-0---------------------|-0----------2-----------|-2--------------------|
|-0----------2---------|-0---------------------|-0----------0-----------|-2--------------------|
|------------0---------|-2---------------------|-2----------------------|-0--------------------|
|----------------------|-3---------------------|-3----------------------|----------------------|
|
|
|
|----------------------|-----17----15-14----14-|-15---------------------|----------14----------|
|--15-14-15--15-14-15--|--15----15-------17----|----15-14-15--15-14-17--|-17-17-17----17-15-14-|
|----------------------|-----------------------|------------------------|----------------------|
|----------------------|-----------------------|------------------------|----------------------|
|----------------------|-----------------------|------------------------|----------------------|
|----------------------|-----------------------|------------------------|----------------------|

          C#         G#        F#
There's a picture of us on our wedding day
                 C#         G#                
I recognize that girl but I can't settle in these- 


  P.M.-----------------|
  F#
|-------------------------|-------------------------|
|-------------------------|-------------------------|
|-------------------------|-------------------------|
|-------------------------|-5--5--5--5--5--5--5--5--|
|-5--5--5--5--5--5--5--5--|-5--5--5--5--5--5--5--5--|
|-3--3--3--3--3--3--3--3--|-3--3--3--3--3--2--3--4--|
|
|
|  fade-out
|-------------------------|-------------------------|
|-15-14-15-14-15-14-15-14-|-15-14-15-14-15-14-15-14-|
|-------------------------|-------------------------|
|-------------------------|-------------------------|
|-------------------------|-------------------------|
|-------------------------|-------------------------|


  F#5
 -walls


    G#                                                     
|| -17-17-17-17-17-17-17-17-17-17-17-17-17-17-17-17- ||
|| -15-15-15-15-15-15-15-15-15-15-15-15-15-15-15-15- ||
||O-14-14-14-14-14-14-14-14-14-14-14-14-14-14-14-14-O||
||O-X--X--X--X--X--X--X--X--X--X--X--X--X--X--X--X--O||
|| -0--0--0--0--0--0--0--0--0--0--0--0--0--0--0--0-- ||
|| ------------------------------------------------- ||

   
    F#
|| -17-17-17-17-17-17-17-17-17-17-17-17-17-17-17-17- ||
|| -15-15-15-15-15-15-15-15-15-15-15-15-15-15-15-15- ||
||O-X--X--X--X--X--X--X--X--X--X--X--X--X--X--X--X--O||
||O-0--0--0--0--0--0--0--0--0--0--0--0--0--0--0--0--O||
|| -14-14-14-14-14-14-14-14-14-14-14-14-14-14-14-14- ||
|| -15-15-15-15-15-15-15-15-15-15-15-15-15-15-15-15- ||


         G#          F#
We can't wait 'til tomorrow



  PRE-CHORUS

  G#                A#m                             F#                F
|-17-17-17-17-17-17-17-17-17-17-17-17-17-17-17-17-|-17-17-17-17-17-17-17-17-17-17-17-17-17-17-17-17-|
|-15-15-15-15-15-15-15-15-15-15-15-15-15-15-15-15-|-15-15-15-15-15-15-15-15-15-15-15-15-15-15-15-15-|
|-14-14-14-14-14-14-14-14-14-14-14-14-14-14-14-14-|-14-14-14-14-14-14-14-14-14-14-14-14-14-14-14-14-|
|-X--X--X--X--X--X--X--X--X--X--X--X--X--X--X--X--|-0--0--0--0--0--0--0--0--0--0--0--0--0--0--0--0--|
|-0--0--0--0--0--0--14-14-14-14-14-14-14-14-14-14-|-14-14-14-14-14-14-X--X--X--X--X--X--X--X--X--X--|
|-------------------------------------------------|-15-15-15-15-15-15-14-14-14-14-14-14-14-14-14-14-|
|                                                    use your thumb for the low notes
|
|
|P.M.----------------------------------------------------------------------------------------------|
|-------------------------------------------------|-------------------------------------------------|
|-------------------------------------------------|-------------------------------------------------|
|-------------------------------------------------|-------------------------------------------------|
|-------------------------------------------------|-------------------------------------------------|
|-7-----7-----7-----9-----9-----9-----9-----9-----|-5-----5-----5-----4-----4-----4-----4-----4-----|
|-5-----5-----5-----7-----7-----7-----7-----7-----|-3-----3-----3-----2-----2-----2-----2-----2-----|


          G#                A#m
Now we're caught up in the appeal
      F#            C#
Baby, why you wanna hide it?


                    A#m                             F#                C#
|-17-17-17-17-17-17-17-17-17-17-17-17-17-17-17-17-|-17-17-17-17-17-17-17-17-17-17-17-17-17-17-17-17-|
|-15-15-15-15-15-15-15-15-15-15-15-15-15-15-15-15-|-15-15-15-15-15-15-15-15-15-15-15-15-15-15-15-15-|
|-14-14-14-14-14-14-14-14-14-14-14-14-14-14-14-14-|-14-14-14-14-14-14-14-14-14-14-14-14-14-14-14-14-|
|-X--X--X--X--X--X--X--X--X--X--X--X--X--X--X--X--|-0--0--0--0--0--0--0--0--0--0--0--0--0--0--0--0--|
|-0--0--0--0--0--0--14-14-14-14-14-14-14-14-14-14-|-14-14-14-14-14-14-X--X--X--X--X--X--X--X--X--X--|
|-------------------------------------------------|-15-15-15-15-15-15-14-14-14-14-14-14-14-14-14-14-|
|                                                    use your thumb for the low notes
|
|
|P.M.----------------------------------------------------------------------------------------------|
|-------------------------------------------------|-------------------------------------------------|
|-------------------------------------------------|-------------------------------------------------|
|-------------------------------------------------|-------------------------------------------------|
|-------------------------------------------------|-------------------------------------------------|
|-7-----7-----7-----9-----9-----9-----9-----9-----|-5-----5-----5-----4-----4-----4-----4-----4-----|
|-5-----5-----5-----7-----7-----7-----7-----7-----|-3-----3-----3-----2-----2-----2-----2-----2-----|


         A#m        F#    C#
It's the last thing on my mind


  G#                                                     
|| -17-17-17-17-17-17-17-17-17-17-17-17-17-17-17-17- ||
|| -15-15-15-15-15-15-15-15-15-15-15-15-15-15-15-15- ||
||O-14-14-14-14-14-14-14-14-14-14-14-14-14-14-14-14-O||
||O-X--X--X--X--X--X--X--X--X--X--X--X--X--X--X--X--O||
|| -0--0--0--0--0--0--0--0--0--0--0--0--0--0--0--0-- ||
|| ------------------------------------------------- ||
|
|
|| ------------------------------------------------- ||
|| ------------------------------------------------- ||
||O-------------------------------------------------O||
||O-------------------------------------------------O||
|| -7-----7-----7-----7-----7-----7-----7-----7----- ||
|| -5-----5-----5-----5-----5-----5-----5-----5----- ||


  G#
I turn the engine over and  my body just comes alive!



  CHORUS

    C#  G#   F#         C#   G#
|| -2---0--|-3----|-3---2--|-0---- ||
|| -3---2--|-3----|-3---3--|-2---- ||
||O-2---2--|-0----|-0---2--|-2----O||
||O-0---2--|-0----|-0---0--|-2----O||
|| -----0--|-2----|-2------|-0---- ||
|| --------|-3----|-3------|------ ||x2


                  C#      G#  F#
Ain't we all just runaways?

I knew it when I met you
C#            G#          C#  G#  F#
I'm not gonna let you runaway
                        C#             G#
I knew it when I held I wasn't lettin' go, oh, oh, oh, oh!



    C#    G#          F#                      C#          G#                  G#5 A#5  F#  
|| -2-2-2-0-0-0-0-0-|-3-3-3-3-3-3-3-3-|-3-3-3-2-2-2-2-2-|-0-0-0-0-0-0-0-0- ||---------|-3---|
|| -3-3-3-2-2-2-2-2-|-3-3-3-3-3-3-3-3-|-3-3-3-3-3-3-3-3-|-2-2-2-2-2-2-2-2- ||---------|-3---|
||O-2-2-2-2-2-2-2-2-|-0-0-0-0-0-0-0-0-|-0-0-0-2-2-2-2-2-|-2-2-2-2-2-2-2-2-O||-2---4---|-0---|
||O-0-0-0-2-2-2-2-2-|-0-0-0-0-0-0-0-0-|-0-0-0-0-0-0-0-0-|-2-2-2-2-2-2-2-2-O||-2---4---|-0---|
|| -------0-0-0-0-0-|-2-2-2-2-2-2-2-2-|-2-2-2-----------|-0-0-0-0-0-0-0-0- ||-0---2---|-2---|
|| -----------------|-3-3-3-3-3-3-3-3-|-3-3-3-----------|----------------- ||---------|-3---|

C#         G#       F#
  Ain't we all just runaways
  C#  G#
Yeah, runaways!
C#         G#       F#
  Ain't we all just runaways
  C#  G#5 A#5 F#
Yeah!
Tap to rate this tab
# A B C D E F G H I J K L M N O P Q R S T U V W X Y Z