Song name
# A B C D E F G H I J K L M N O P Q R S T U V W X Y Z

Killers - Miss Atomic Bomb tab

The Killers
Miss Atomic Bomb           tabbed by: ls311


First off tune all the strings a half-step down,                                         
                                                                                        
                                     after that tune your high e (the thin one) to
match the 2nd string on your B.
So when played together it produces
the same sound.

Also if you know what I should call the
? string that would be awesome.

?--0--
B--2--
G-----
D-----
A-----
E-----

I put lyrics the first time a part
comes up just, listen to the song for progression after that.
:)



"When I look back.."
?------------------------------|
B--12--14---12--14--16--17-----|
G----11--11--------------------|
D------------------------------|
A------------------------------|
E------------------------------|


"Miss Atomic Bomb.."
?----------------------|-------------------|
B--12~-4-7~--12~--4-7~-|-9/5-4--5----------|
G----------------------|-----------8-6~----|
D----------------------|---------6---------|
A----------------------|-------------------|
E----------------------|-------------------|

"So you took your place.."
?------------------------|
B--12---12----11-7~------|
G-----9~--8~-------6-9~--|
D------------------------|
A------------------------|
E------------------------|



Mr. Brightside riff :) ,and the main reason I tabbed out this song :)
?---------0------|
B----------14----|
G-----16-----16~-|
D---13--13-------|
A-14-------------|
E----------------|

|--------0--------------0--------------0--------------0-----|
|---------14-------------14-------------14-------------14---|
|----16-----16~-----16-----16~-----16-----16------16-----16-|
|--13--13---------13--13---------13--13---------13--13------|
|13-------------11------------------------------------------|
|------------------------------14-------------12------------|

 --------0--------------0--------------0--------------0-----|
 ---------14-------------14-------------14-------------14---|
 ----16-----16~-----16-----16~-----16-----16------16-----16-|
 --13--13---------13--13---------13--13---------13--13------|
 13-------------11----------------------------14------------|
 ------------------------------14---------------------------|

?---------0------|
B----------14----|
G-----16-----16~-|
D---13--13-------|
A-14-------------|
E----------------|


Just go back to the other main riffs, its a pretty simple song
with the exception of the Mr. Brightside part.

Feel free to comment or rate, and if you have any questions on
how to play the Mr. Brightside part hit me up.

Thanks :)
Tap to rate this tab
# A B C D E F G H I J K L M N O P Q R S T U V W X Y Z