Song name
# A B C D E F G H I J K L M N O P Q R S T U V W X Y Z

Kim Wilde - Anyplace Anywhere Anytime tab

My first tab here, hope it is useful for you.
Enjoy!

e----------------------------------5~-----|-----------------------------------|
B-0-7-0-8-5~--0-7-0-8------0-7-0-8----8-8~|-0--0-7-0-8-5--5--5-7--8---------7-|
G---------------------5~------------------|-------------------------5--5--5---|
D-----------------------------------------|-----------------------------------|
A-----------------------------------------|-----------------------------------|
E-----------------------------------------|-----------------------------------|

e----5--5--5-----------------------------------------------5--5--5-------5--5-|
A--8---------8--7--------0-7-0-8-5--5--5-7--8----------7-8---------7-7-8------|
G-----------------7---7------------------------7--7--7------------------------|
D-----------------------------------------------------------------------------|
B-----------------------------------------------------------------------------|
E-----------------------------------------------------------------------------|

e--5-7--7--5~-|
A-------------|
G-------------|
D-------------|
A-------------|
E-------------|

tabbed by frenzyann
Tap to rate this tab
# A B C D E F G H I J K L M N O P Q R S T U V W X Y Z