Song name
# A B C D E F G H I J K L M N O P Q R S T U V W X Y Z

Kina Grannis - Together tab

----------------------------------------------------------------------------
			TOGETHER - Kina Grannis
----------------------------------------------------------------------------

This is for the album version of Together, it has a slightly different arrangement 
than the other version posted already!

Tuning: Capo 1

Chords Used: (all chords relative to Capo)
C     x32010
E*    070000 (Its an Eish thing! Not sure of the name!)
G     320033
G*    320000 (played whilst picking, if strumming play regular G)
F     133211
Am    x02210

Intro:
    C                       E*
e|----0-----0-----0-----0-----0-----0-----0-----0-----|
B|----1-----1-----1-----1-----0-----0-----0-----0-----|
G|------0-----0-----0-----0-----0-----0-----0-----0---|
D|----------------------------------------------------|
A|--3-----3-----3-----3-----7-----7-----7-----7-------|
E|----------------------------------------------------|

    Am                      F           G*
e|----------------------------------------------------|
B|----1-----1-----1-----1-----1-----1-----------------|
G|----2-----2-----2-----2-----2-----2-------0---------|
D|------2-----2-----2-----2-----3-----3----0----------|
A|--0-----0-----0-----0-------------------------------|
E|--------------------------1-----1-----3------3------|

Verse:

    C                       G*
e|----------------------------------------------------|
B|----1-----1-----1-----1-----0-----0-----0-----0-----|
G|----0-----0-----0-----0-----0-----0-----0-----0-----|
D|------2-----2-----2-----2-----0-----0-----0-----0---|
A|--3-----3-----3-----3-------------------------------|
E|--------------------------3-----3-----3-----3-------|
One time I dreamt an unknown land, with jungle trees and the blackest sand.

    Am                      F           G*
e|----------------------------------------------------|
B|----1-----1-----1-----1-----1-----1-----------------|
G|----2-----2-----2-----2-----2-----2-------0---------|
D|------2-----2-----2-----2-----3-----3----0----------|
A|--0-----0-----0-----0-------------------------------|
E|--------------------------1-----1-----3------3------|
Had taken us as prisoners in the night.

    C                       G*
e|----------------------------------------------------|
B|----1-----1-----1-----1-----0-----0-----0-----0-----|
G|----0-----0-----0-----0-----0-----0-----0-----0-----|
D|------2-----2-----2-----2-----0-----0-----0-----0---|
A|--3-----3-----3-----3-------------------------------|
E|--------------------------3-----3-----3-----3-------|
Upon its shore we could not sleep. Instead we stayed awake to keep

    Am                      F           G*
e|----------------------------------------------------|
B|----1-----1-----1-----1-----1-----1-----------------|
G|----2-----2-----2-----2-----2-----2-------0---------|
D|------2-----2-----2-----2-----3-----3----0----------|
A|--0-----0-----0-----0-------------------------------|
E|--------------------------1-----1-----3------3------|
Our minds off hidden monsters and the like.

Pre-Chorus:
    C                       G*
e|----------------------------------------------------|
B|----1-----1-----1-----1-----0-----0-----0-----0-----|
G|----0-----0-----0-----0-----0-----0-----0-----0-----|
D|------2-----2-----2-----2-----0-----0-----0-----0---|
A|--3-----3-----3-----3-------------------------------|
E|--------------------------3-----3-----3-----3-------|
Hour by hour we passed the time. We watched a motion picture in the sky.

    Am                      F           G*
e|----------------------------------------------------|
B|----1-----1-----1-----1-----1-----1-----------------|
G|----2-----2-----2-----2-----2-----2-------0---------|
D|------2-----2-----2-----2-----3-----3----0----------|
A|--0-----0-----0-----0-------------------------------|
E|--------------------------1-----1-----3------3------|
You were the clouds and I was the moon.

Chorus:(strum or pick, if strumming play regular G)
    C                       G*
e|----------------------------------------------------|
B|----1-----1-----1-----1-----0-----0-----0-----0-----|
G|----0-----0-----0-----0-----0-----0-----0-----0-----|
D|------2-----2-----2-----2-----0-----0-----0-----0---|
A|--3-----3-----3-----3-------------------------------|
E|--------------------------3-----3-----3-----3-------|
You and me together, 

    F                       G*
e|----------------------------------------------------|
B|----1-----1-----1-----1-----0-----0-----0-----0-----|
G|----2-----2-----2-----2-----0-----0-----0-----0-----|
D|------3-----3-----3-----3-----0-----0-----0-----0---|
A|----------------------------------------------------|
E|--1-----1-----1-----1-----3-----3-----3-----3-------|
together, together.

Verse:
    C                       G*
e|----------------------------------------------------|
B|----1-----1-----1-----1-----0-----0-----0-----0-----|
G|----0-----0-----0-----0-----0-----0-----0-----0-----|
D|------2-----2-----2-----2-----0-----0-----0-----0---|
A|--3-----3-----3-----3-------------------------------|
E|--------------------------3-----3-----3-----3-------|
Then waves came crashing down on me and they tried to take me out to sea.

    Am                      F           G*
e|----------------------------------------------------|
B|----1-----1-----1-----1-----1-----1-----------------|
G|----2-----2-----2-----2-----2-----2-------0---------|
D|------2-----2-----2-----2-----3-----3----0----------|
A|--0-----0-----0-----0-------------------------------|
E|--------------------------1-----1-----3------3------|
You fought them off so gallantly and won.

    C                       G*
e|----------------------------------------------------|
B|----1-----1-----1-----1-----0-----0-----0-----0-----|
G|----0-----0-----0-----0-----0-----0-----0-----0-----|
D|------2-----2-----2-----2-----0-----0-----0-----0---|
A|--3-----3-----3-----3-------------------------------|
E|--------------------------3-----3-----3-----3-------|
So back again upon our shore. We really wanted nothing more,

    Am                      F           G*
e|----------------------------------------------------|
B|----1-----1-----1-----1-----1-----1-----------------|
G|----2-----2-----2-----2-----2-----2-------0---------|
D|------2-----2-----2-----2-----3-----3----0----------|
A|--0-----0-----0-----0-------------------------------|
E|--------------------------1-----1-----3------3------|
Than to hold each other 'til our arms grew tired.

Pre-Chorus: (palm mute, strum)
     C     
Then slowly like a timid flower
     G                      
The sun rose up at just the hour
     Am                                F    G
When we had slowly slipped out of my dream.

Chorus: (strum)
C            G         F          G
You and me together, together, together.
C            G         F          G
You and me together, together, together.
                     C 
Together is all we need.

Bridge:
           E*                   Am                  F   G
Buh du ba ba, ba da dum, ba bad da, ba ba bad da bum.

Chorus: (palm mute, then strum normally)
C            G         F          G
You and me together, together, together.
C            G         F          G
You and me together, together, together.
                      C
Together is all we need.

Outro: (you could pick or strum this bit.)
  G          Am                              F   G
Oooh, da da dum, na da da bum, na da da bum bum.

Tap to rate this tab
 
# A B C D E F G H I J K L M N O P Q R S T U V W X Y Z