Song name
# A B C D E F G H I J K L M N O P Q R S T U V W X Y Z

King Crimson - Larks Tongue In Aspic Part I tab

Help us improve GuitareTab! Take a short survey!
Well, after playing around for a while, I finally learned (most of) Lark's Tongue In 
Part One. So, I thought I'd share it here:


Violin (2:59):
e|---------------------------------------------------------------------------|
B|---------------------------------------------------------------------------|
G|---------------------------------------------------------------------------|
D|---------------------------------------------------------------------------|
A|-2-----2-----2---2----2-----2-----2-2-3-4--2-----2-----2---2---------------|
E|-4-4-4-4-4-4-4-4-4-4--4-4-4-4-4-4-4-4-4-4--4-4-4-4-4-4-4-4-4-4-------------|

e|---------------------------------------------------------------------------|
B|---------------------------------------------------------------------------|
G|---------------------------------------------------------------------------|
D|---------------------------------------------------------------------------|
A|-2-----2-----2-2-3-4--5-----5-----5-5-6-7--5-----5-----5-5-6-7-------------|
E|-4-4-4-4-4-4-4-4-4-4--4-4-4-4-4-4-4-4-4-4--4-4-4-4-4-4-4-4-4-4-------------|

e|---------------------------------------------------------------------------|
B|---------------------------------------------------------------------------|
G|---------------------------------------------------------------------------|
D|---------------------------------------------------------------6-----------|
A|-6-----6-----6---6-7--7-----7-----7---7-8--10----10----10--10--X-----------|
E|-4-4-4-4-4-4-4-4-4-4--4-4-4-4-4-4-4-4-4-4--4-4-4-4-4-4-4-4-4---4-----------|

e|-----------------------------------------------------------------------------|
B|-----------------------------------------------------------------------------|
G|-----------------------------------------------------------------------------|
D|-6-----6-----6---6----X2-----------------------------------------------------|
A|-X-----X-----X---X-----------------------------------------------------------|
E|-4-4-4-4-4-4-4-4-4-4---------------------------------------------------------|

Feedback (3:08):
e|---------------------------------------------------------------------------|
B|---------------------------------------------------------------------------|
G|---------------------------------------------------------------------------|
D|---------------------------------------------------------------------------|
A|---------------------------------------------------------------------------|
E|-6~-5~-4~-(12)~-----3~-2~-1~-----------------------------------------------|

Main Riff (3:40):
e|---------------------------------------------------------------------------|
B|-6-6-7-6-6-6---------------------------------------------------------------|
G|-6-6-7-6-6-6---------------------------------------------------------------|
D|-5-5-6-5-5-5---------------------------------------------------------------|
A|-4-4-5-4-4-4---------------------------------------------------------------|
E|---------------------------------------------------------------------------|

In a little bit I will add to the violin, main riff, and the rest of the song. Enjoy! :)
Related for Larks Tongue In Aspic Part I tab