Song name
# A B C D E F G H I J K L M N O P Q R S T U V W X Y Z

King Krule - Baby Blue tab

-------------------------------------------------------------------------------
                             King Krule - Baby Blue
-------------------------------------------------------------------------------
Tabbed by: hoseymoties
E-mail: tomdenno1989@yahoo.com

Tuning: Standard

There's a part in the second verse where he strums those verse chords the same style as 
the chorus chords.  It actually transitions into the chorus.  Also the 87 to 76 part in 
the chorus is a slide down and then immediately up.  Have fun playing it, it's sexy as fuck.



VERSES:

e|----------------------------------------------------------------------------|
B|-------11-------11-------8--------7-----------------------------------------|
G|-----8---8-----8--8----7--7----7--6-----------------------------------------|
D|---10-----10--9----9--8----8--8---7-----------------------------------------|
A|-11---------11------6-------6-----6-----------------------------------------|
E|----------------------------------------------------------------------------|

CHORUS:

e|------3-----4---------------------------------------------------------------------|
B|-8----3-----4--------------8--7--8------------------------------------------------|
G|-7----3-----5--------------7--6--7------------------------------------------------|
D|-8----5-----6---------------------------------------------------------------------|
A|-6----3-----6---------------------------------------------------------------------|
E|------------4---------------------------------------------------------------------|


************************************

| /   slide up
| \   slide down
| h   hammer-on
| p   pull-off
| ~   vibrato
| +   harmonic
| x   Mute note
| b   Bend
| pb  Pre-bend
| br  Bend release
| pbr Pre-bend release
| brb Bend release bend

************************************
Tap to rate this tab
# A B C D E F G H I J K L M N O P Q R S T U V W X Y Z