Song name
# A B C D E F G H I J K L M N O P Q R S T U V W X Y Z

King Krule - Easy Easy tab

Verse:

E[---------------------------------------------------------------]
B[---------------------------------------------------------------]
G[---------------------------------------------------------------] x5
D[---------------------------------------------------------------]
A[---------------------------------------------------------------]
E[-0-0-0-0-0-0-0-0-0-0-0-0-0-0-0-0-4-4-4-4/7-7-7-7-7-7-7-6-6-6-6-]

E[---------------------------------------------------------------]
B[---------------------------------------------------------------]
G[---------------------------------------------------------------]
D[---------------------------------------------------------------]
A[-6-6-6-6-6-6-6-6-4-4-4-4-4-4-4-4-4-4-4-4-----------------------]
E[-0-0-0-0-0-0-0-0-0-0-0-0-0-0-0-0-0-0-0-0-7-7-7-7-7-7-7-6-6-6-6-]


Chorus:

E[-2-2----2---2-2----2-1--0-0----0---0-0-------------------------]
B[-4-4----4---4-4----4-3--2-2----2---2-2-------------------------]
G[-3-3----3---3-3----3-2--1-1----1---1-1-------------------------]
D[-4-4----4---4-4----4-3--2-2----2---2-2-------------------------]
A[-2-2----2---2-2----2-1--2-2----2---2-2-------------------------]
E[-x-x----x---x-x----x-x--0-0----0---0-0-------------------------]

E[-2-2----2---2-2----2-1--7-7----7---7-7-------------------------]
B[-4-4----4---4-4----4-3--9-9----9---9-9-------------------------]
G[-3-3----3---3-3----3-2--8-8----8---8-8-------------------------] x4
D[-4-4----4---4-4----4-3--9-9----9---9-9-------------------------]
A[-2-2----2---2-2----2-1--7-7----7---7-7-------------------------]
E[-x-x----x---x-x----x-x--x-x----x---x-x-------------------------]



Outro:

E[-2----1---0----------2----1---7----------14----13---12-----------]
B[-4----3---2----------4----3---9----------16----15---14-----------]
G[-3----2---1----------3----2---8----------15----14---13-----------]
D[-4----3---2----------4----3---9----------16----15---14-----------]
A[-2----1---2----------2----1---7----------14----13---12-----------]
E[-x----x---0----------x----x---x----------x-----x----x------------]

E[-2----1---0----------------------------------------------------]
B[-4----3---2----------------------------------------------------]
G[-3----2---1----------------------------------------------------]
D[-4----3---2----------------------------------------------------]
A[-2----1---2----------------------------------------------------]
E[-x----x---0----------------------------------------------------]

This is most of it, it is recorded with to guitars though. You will have to listen for 
most of the rhythms. Hope this wasn't too bad :)
Tap to rate this tab
# A B C D E F G H I J K L M N O P Q R S T U V W X Y Z