Song name
# A B C D E F G H I J K L M N O P Q R S T U V W X Y Z

Kings Of Leon - Pickup Truck tab

-----------------------------------------------------------------
PICKUP TRUCK - Kings of Leon
-----------------------------------------------------------------
Tabbed by:jamesmckee92
Date tabbed out: 23rd August 2010
Tuning:standard
THIS SONG IS PROPERTY OF KINGS OF LEON AND ALL RESPECTIVE LABELS WHO OWN THE
COPYRIGHT TO THIS, AS YET UNRELEASED, SONG FROM THE FORTHCOMING ALBUM "COME AROUND
SUNDOWN" WHICH IS RELEASED OCTOBER 18TH 2010
Intro:

Lots of reverb-y effect on lead guitar, this is played a total of 7 maybe 8 times before 
starts.

e|---------------------------------------------------------------|
B|--17\13~~~~~~~~------------------------------------------------|
G|---------------------------------------------------------------|
D|---------------------------------------------------------------|
A|---------------------------------------------------------------|
E|---------------------------------------------------------------|

Matthew (lead) plays this twice before bass comes in, then a further 4 times before 
starts playing.

Im almost certain Caleb plays a basic C -chord throughout verses and chorus, alternating 
fingerpicking/arpeggio (verse) and strumming (for chorus).

RIFF:
lead guitar - matthew
e|---------------------------------------------------------------|
B|---------------------------------------------------------------|
G|--10~--9--------------------------9----------------------------|
D|----------------12--10~~-----------------10~~------------------|
A|-----------10--------------------------------------------------|
E|---------------------------------------------------------------|

Bass: (repeated throughout song)
G|---------------------------------------------------------------|
D|---------------------------------------------------------------|
A|---------------------------------------------------------------|
E|-88888-10-5-3h55555p3-0h1--------------------------------------|

Thanks to muckymouse for helping with the bass in this!

Lyrics:

1st verse
Walk you home to see

Where your living around

And i know this place

Pour yourself on me and you know i'm the one

That you wont forget


And in your dear mind i see something (aint) right

And i know your weak

When he comes around i see your fixing a shot and my faith wont keep


Chorus
Everything's so emotional

I didnt think it'd get physical

But when you pull in and rev it up

I see you crawl outta pickup truck

And in the moonlight i run him down

All kickin', screamin', and rollin' around

A little piece of a bloody tooth

Just so you know i'll be thinkin of you

Just so you know ohhhhhh

RIFF

2nd Verse
Trim and misery

And as cold as a hole,

I hurt your bones and skin,

Crackling wood dont bite,

And my eyes swolled up now,

I can see the light

Chorus x2

Just so you know ohhhh
Just so you know ohhhh

END
Tap to rate this tab
 
# A B C D E F G H I J K L M N O P Q R S T U V W X Y Z