Song name
# A B C D E F G H I J K L M N O P Q R S T U V W X Y Z

Kings Of Leon - Use Somebody Acoustic tab

Hey, putting some chord charts together (thank you Pritchard Fan!) and putting in my own 
I've made an easy arrangement of this beautiful song.

it can be played by pretty much everybody, so enjoy it. (by the way: it's meant for 
can probably be played on electric, but that just doesn't do the trick)


good luck and have fun.

C          C/E         F
Ohhh Woahh Ohhh Woahh Ohhh

e  ----------0--------------------0------------|
B  --------1----------1---------1--------------|
G  ------0----------0---------2----------------|
D  ----2----------2---------3------------------|
A  --3--------------------3--------------------|
E   -------------0-----------------------------|


                  C                      C/E            F
I've been roaming around, always looking down at all I see
        C              C/E             F
Painted faces fill the places I can't reach

 e  ----------0---------------------------0----------------------|
B  --------1------------1--------------1----1--------------------|
G  ------0-----------0---------------2---------------------------|
D  ----2-----------2---------------3-----------------------------|
A  --3---------------------------3-------------------------------|
E   --------------0----------------------------------------------|


F                     Am         C            F
You know that I could use somebody
F                     Am         C            F
You know that I could use somebody

e  ----------0----------------0---------------0------0-----0---------0---|
B  --------1---1---1--------1---1---1-------1---1------1-----1-----1-----|
G  ------2-------2--------0-------0-------2-------2------2-------2-------|
D  ----2----------------2---------------3----------------------3---------|
A  --0----------------3---------------3----------------------------------|
E   ---------------------------------------------------------------------|

             C               C/E               F
Someone like you and all you know and how you speak
             C            C/E           F
Countless lovers under cover of the streets

e  ----------0-----------------0---------------0-----0----0---------0--|
B  --------1---1---1---------1---1---1-------1---1-----1----1-----1----|
G  ------0-------0---------0-------0-------2-------2----2-------2------|
D  ----2-----------------2---------------3--------------------3--------|
A  --3---------------------------------3-------------------------------|
E   --------------------0----------------------------------------------|

                     Am         C            F
You know that I could use somebody
                     Am         C            F
You know that I could use somebody

e  ----------0----------------0---------------0------0-----0---------0---|
B  --------1---1---1--------1---1---1-------1---1------1-----1-----1-----|
G  ------2-------2--------0-------0-------2-------2------2-------2-------|
D  ----2----------------2---------------3----------------------3---------|
A  --0----------------3---------------3----------------------------------|
E   ---------------------------------------------------------------------|

             C                C/E         F
Someone like you   Woahh Ohhh Woahh Ohhh Ohhh     X2
           C                       C/E            F
Off in the night while you live it up I'm off to sleep
      C                 C/E           F
Waging wars to shape the poet and the beat

e  ----------0-----------------0---------------0-----0----0---------0--|
B  --------1---1---1---------1---1---1-------1---1-----1----1-----1----|
G  ------0-------0---------0-------0-------2-------2----2-------2------|
D  ----2-----------------2---------------3--------------------3--------|
A  --3---------------------------------3-------------------------------|
E   --------------------0----------------------------------------------|

F                 Am            C             F
I hope it's gonna make you notice
F                 Am            C             F
(Let F ring...again)
I hope it's gonna make you notice

e  ----------0----------------0---------------0------0-----0---------0---|
B  --------1---1---1--------1---1---1-------1---1------1-----1-----1-----|
G  ------2-------2--------0-------0-------2-------2------2-------2-------|
D  ----2----------------2---------------3----------------------3---------|
A  --0----------------3---------------3----------------------------------|
E   ---------------------------------------------------------------------|


             C          Em            F
Someone like meeeeeeee  eee                   X2

e  ----------0-----------------0---------------0-----0----0---------0--|
B  --------1---1---1---------1---1---1-------1---1-----1----1-----1----|
G  ------0-------0---------0-------0-------2-------2----2-------2------|
D  ----2-----------------2---------------3--------------------3--------|
A  --3---------------------------------3-------------------------------|
E   --------------------0----------------------------------------------|

        Am        C                   F       X2
Someone me, somebody
             Am          C            F
Someone like you, somebody

e  ----------0----------------0---------------0------0-----0---------0---|
B  --------1---1---1--------1---1---1-------1---1------1-----1-----1-----|
G  ------2-------2--------0-------0-------2-------2------2-------2-------|
D  ----2----------------2---------------3----------------------3---------|
A  --0----------------3---------------3----------------------------------|
E   ---------------------------------------------------------------------|

                  C                      Em            F
I've been roaming around, always looking down at all I see


 e  ----------0---------------------------0----------------------|
B  --------1------------1--------------1----1--------------------|
G  ------0-----------0---------------2---------------------------|
D  ----2-----------2---------------3-----------------------------|
A  --3---------------------------3-------------------------------|
E   --------------0----------------------------------------------|
Tap to rate this tab
 
# A B C D E F G H I J K L M N O P Q R S T U V W X Y Z