Song name
# A B C D E F G H I J K L M N O P Q R S T U V W X Y Z

Kings Of Leon - Wait For Me tab

Guitar 1 Verse and Chorus

Please feel free to take use this as a base to tab the rest of the song.


    A                                               F#m                     E
E|--------------------------------------------------------------------------------------------------|
B|--------------------------------------------------------------------------------------------------|
G|--------------------------------------------------------------------------------------------------|
D|--------0-----------0-----------0-----------0-----------0-----------0-----------0-----------0-----|
A|-----4-----4-----4-----4-----4-----4-----4-----4-----4-----4-----4-----4-----4-----4-----4-----4--|
E|--5-----------5-----------5-----------5-----------2-----------2-----------0-----------0-----------|


    D                       A/C#                    E
E|--------0-----------0-----------0-----------0-----------0-----------0-----------0-----------0-----|
B|--------------------------------------------------------------------------------------------------|
G|-----2-----2-----2-----2-----2-----2-----2-----2-----2-----2-----2-----2-----2-----2-----2-----2--|
D|--0-----------0-----------------------------------------------------------------------------------|
A|--------------------------4-----------4-----------------------------------------------------------|
E|--------------------------------------------------0-----------0-----------0-----------0-----------|
Tap to rate this tab
# A B C D E F G H I J K L M N O P Q R S T U V W X Y Z