Song name
# A B C D E F G H I J K L M N O P Q R S T U V W X Y Z

Kings Of Leon - Taper Jean Girl tab

Okay this is my very first tab for Taper Jean Girl ( I heard it during the movie 
during the credits), if you have any questions email me at Girlgamer3@gmail.com... I am trying 
get the rest of the bass in here but it might take me some time. Thanks!

The order of the song is as follows:

1) Bass Intro (you can play this on a regular guitar)
2) Guitar Chorus
3) Play After Chorus
4) Guitar Chorus
5) Play After Chorus ( Note that the Ending Bass is also played at the same time as this)
6) Solo
7) Ending Riff
8) Ending Bass (which can also be played on guitar)

e---------------------------------------|
b---------------------------------------|
g---------------------------------------|   (x4 Bass Intro)
d---------------------------------------|
a---------------------------------------|
E--0---0-0----0---0---0---0-0---0---0---|


e---------------------------------------|
b---------------------------------------|
g---------------------------------------|
d---------------------------------------|
a--7-9-11--11-11-11--7-9-11--11-11-11---|
E--0-0--0--0--0--0---0-0--0--0---0--0---|

e------------------------------------------]
b------------------------------------------]
g------------------------------------------]
d--16-14-16---16-16-16--16-14-16--16-16-16-]  (x4 Guitar Chorus)
a---0--0--0----0--0--0---0-0-0-----0--0--0-]
E------------------------------------------]

Note: On the fifth time and only on the fifth time it goes,

e----------------------------------------|
b----------------------------------------|
g----------------------------------------|
d----------------------------------------|
a--7-9-11--11-11-11--7-9-12-11--11-11-11-|
E--0-0--0--0--0--0---0-0--0--0---0--0--0-|

e----------------------------------------------]
b----------------------------------------------]
g----------------------------------------------]
d--16-14-16---16-16-16--16-14-16-14---16-16-16-]  (x1 Guitar Chorus)
a---0--0--0----0--0--0---0-0--0--0-----0--0--0-]
E----------------------------------------------]

e--------------]
b--------------]
g--------------]
d--9-9-9-7-----]  (x4 Played after Chorus)
a--7-7-7-5-----]
E--0-0-0-0-----]

[Lyrics:C***s watch their bodies,
No Room for makeup
I think he's tasted
tasted the watcher...]


(Solo)

e--12--9-------------------12--9---------12--9---------]
b------9--7---7----(2x)--------9--7----------9--7---7--]
g------------------------------------------------------] (x2)
d------------------------------------------------------]
a------------------------------------------------------]
E------------------------------------------------------]


Guitar #1 Ending Riff
e-----------------------]
b-----------------------]
g-----------------------]
d-2--2--0-0---2222-0-0--]  x 12
a-0--0--0-0---0000-0-0--]
E-----------------------]

Ending Bass
e-----------------|
b-----------------|
g-----------------| (x6)
d-----------------|
a-----------------|
E-0-0---7---10----|
Tap to rate this tab
 
# A B C D E F G H I J K L M N O P Q R S T U V W X Y Z