Song name
# A B C D E F G H I J K L M N O P Q R S T U V W X Y Z

Kings Of Leon - Comeback Story tab

        Tabbed by: 51l3n7
This is my first tab, hope you like it. 

Tuning: Standard

Intro but also played throughout the song:

e|--------12--------------12---------|
B|-----14----14--------14----14------|
G|--14----------14--14----------14---|  x2
D|-----------------------------------|
A|-----------------------------------|
E|-----------------------------------|

e|--------12--------------12---------|
B|-----14----14--------14----14------|
G|--13----------13--13----------13---|  x2
D|-----------------------------------|
A|-----------------------------------|
E|-----------------------------------|  


Main Chorus:


"And I've got your shoes......"

e|-----------------------------------------------------------------------------------|     
B|--------------------------------------14-12----14-----17----14--12--17-------------|
G|-------------------------------14-16-------------13---------------14---13b---------|  x2
D|-----------------------14---16-----------------------------------------------------|        
A|-----------------------------------------------------------------------------------|
E|-----------------------------------------------------------------------------------|


End chorus:


e|-----------------------------------------------------------------------------------|     
B|--------------------------------------14-12----14-----17----14--12--17-------------|
G|-------------------------------14-16-------------13---------------14---13b---------|  x3
D|-----------------------14---16-----------------------------------------------------|       
A|-----------------------------------------------------------------------------------|
E|-----------------------------------------------------------------------------------|

e|------------------------------------------------------------|
B|--------------------------------------14-12----14-----------|
G|-------------------------------14-16-------------13--17s18b-|
D|-----------------------14---16------------------------------|      
A|------------------------------------------------------------|
E|------------------------------------------------------------| 
Tap to rate this tab
# A B C D E F G H I J K L M N O P Q R S T U V W X Y Z