Song name
# A B C D E F G H I J K L M N O P Q R S T U V W X Y Z

Kings Of Leon - Four Kicks tab

Help us improve GuitareTab! Take a short survey!
e-----------------------------------------------------------------------|
B-----------------------------------------------------------------------|
G-----------------------------------------------------------------------|
D--2-0-2-0-2p0-2-0-2-0-2-0-2p0-2-0-2-0-2-0-2p0-2-----2b2b2b2b2b2b2b2b2b-|
A-------------2---------------2---------------2--0-2--------------------|
E-----------------------------------------------0-----------------------|

e-----------------------------------------------------------------------|
B-----------------------------------------------------------------------|
G----------------------------------2b4r2p0---------2b2b2b2b2b2b2b2b2b2b-|
D--2-0-2-0-2p0-2-0-2-0-2-0-2p0--2-0-------2-0-2p0-2---------------------|
A-------------2----------------2-----------------2----------------------|
E

e-----------------------------------------------------------------------|
B---------------------3b5--10-8-10-8-10-8-10-8-10-8-10-8-10b12r10-8/-12-|
G-2b3-2-0-2b4-2-0-4-0---------------------------------------------------|
D--------------------2--------------------------------------------------|
A-----------------------------------------------------------------------|
E-----------------------------------------------------------------------|

e---------12-----12-----12-----12-----15p12--12------------------------|
B-12-15b17--15b17--15b17--15b17--15b17-----15--15p12-15p12--12---------|
G---------------------------------------------------------14--14p12----|
D----------------------------------------------------------------------|
A----------------------------------------------------------------------|
E----------------------------------------------------------------------|

e----------------------------------------------------------------------|
B----------------------------------------------------------------------|
G-14b16r14-12--14b16---------------------------------------------------|
D------------14--------------------------------------------------------|
A----------------------------------------------------------------------|
E----------------------------------------------------------------------|

b-bend
r-release
p-pull off
/-slide down

Overall the song is pretty easy. Solo notes are all played very fast. Listen to the song 
get the timing down. Any questions or corrections e-mail me at audio_fused89@hotmail.com
Related for Four Kicks tab