Song name
# A B C D E F G H I J K L M N O P Q R S T U V W X Y Z

Kiss Kiss Kiss - Broken Hearts tab

for ultimate-guitar.com
by: theguitarhero12

kisskisskiss.dk

Kiss Kiss Kiss
Broken Hearts
Release The Birds


Hoer sangen for at faa timingen rigtig

Intro:
e-3---1/3-3-3--6----|
b-3x4-1/3-3-3--6x6--|
g-------------------|
d-------------------|
a-------------------|
e-------------------|

vers:
e-6----
b-6x6--
g------|x2
d------|
a------|
e------|

e--8---8---8--8--8--8---8--8--8--8---8--8--8--8---8--8--8--8--|
b-10--10--10-10-10-10--10-10-10-10--10-10-10-10--10-10-10-10--|
g-10--10--10-10-10-10--10-10-10-10--10-10-10-10--10-10-10-10--|
d-------------------------------------------------------------|
a-------------------------------------------------------------|
e-------------------------------------------------------------|

e-3---1/3-3-3--6----|
b-3x4-1/3-3-3--6x6--|
g-------------------|
d-------------------|
a-------------------|
e-------------------|

omkvaed:
e-6-6--5-5--3-3--3-3--   -11-11--10-10--8-8--8-8--6-6--5-5--3-3--3-3--|
b-6-6--6-6--3-3--3-3--   -11-11--11-11--8-8--8-8--6-6--6-6--3-3--3-3--|
g---------------------x2 ---------------------------------------------|
d---------------------   ---------------------------------------------|
a---------------------   ---------------------------------------------|
e---------------------   ---------------------------------------------|

e-3---1/3-3-3--6----|
b-3x4-1/3-3-3--6x6--|
g-------------------|
d-------------------|
a-------------------|
e-------------------|

c-del: (so mellow, so mellow to me)
e-------------------   --------------------|
b-------------------   --------------------|
g--10---------------   ---10---------------|
d----10(10)10-8-10--x4 -10--10(10)10-8-10--|x4
a-8-----------------   --------------------|
e-------------------   --------------------|
Tap to rate this tab
 
# A B C D E F G H I J K L M N O P Q R S T U V W X Y Z