Guitaretab - guitar tabs
Song name
# A B C D E F G H I J K L M N O P Q R S T U V W X Y Z
Home / K / Kiss / Dreamin tab

Kiss - Dreamin tab

#-----------------------------PLEASE NOTE--------------------------------#
# This file is the authors own work and represents their interpretation # 
# of the song. You may only use this file for private study, scholarship,#
# or research.                                                           #
#------------------------------------------------------------------------#


DREAMIN' (from the KISS album "PSYCHO CIRCUS")
--------

Transcribed by Emil Ortenmark (emil@kisstabs.com)

Tuned down 1/2-step

Key:
/    = slide up
\    = slide down
b    = bend (whole step)
b^   = bend (1/2 step)
b^^  = bend (1 1/2 steps)
pb   = pre-bend
r    = release-bend
t    = tap with righthand finger
h    = hammer-on
p    = pull-off
~    = Vibrato
*    = Natural Harmonic
#(#) = Trill
**   = Artificial Harmonic
x    = Dead notes (no pitch)
P.M. = Palm mute (- -> underneath indicates which notes)
(\)  = Dive w\bar
(/)  = Release w\bar
Tp   = Tap w\plectrum


Rhythm Fig. 1

Eb|-------------------------------------------------------------|
Bb|----------------0h1-0----------------------------0-1-0-------|
Gb|--4----4---4-4---------2h4p2---------0-----------------2-----|
Db|--2----2--------------------------2-----2-----4--------------|
Ab|-------------------------------3-----------5-----------------|
Eb|-------------------------------------------------------------|


                                                       
Eb|-------------------------------------------------------------|
Bb|----------------0h1-0----------------------3------3----------|
Gb|--4----4---4-4---------2h4p2---------0-----0------2----------|
Db|--2----2--------------------------2-----2--0------0----------|
Ab|-------------------------------3-----------x-----------------|
Eb|-------------------------------------------3-----------------|


                                                           
Eb|-------------------------------------------------------------|
Bb|----------------0h1-0----------------------------0-1-0-------|
Gb|--4----4---4-4---------2h4p2---------0-----------------2-----|
Db|--2----2--------------------------2-----2-----4--------------|
Ab|-------------------------------3-----------5-----------------|
Eb|-------------------------------------------------------------|

                                                                            
Eb|-------------------------------------------------------------|
Bb|----------------0h1-0----------------------------------------|
Gb|--4----4---4-4---------2h4p2---------0-----------0-----------|
Db|--2----2--------------------------2-----2-----4-----4--------|
Ab|-------------------------------3-----------5-----------------|
Eb|-------------------------------------------------------------|



Rhythm Fig. 2a
                                                                   
Eb|-10--------------10----------10--8----------8--8-------------|
Bb|-----11------11------11-------------11------------10------10-|
Gb|---------12--------------12-------------10------------10-----|
Db|-------------------------------------------------------------|
Ab|-------------------------------------------------------------|
Eb|-------------------------------------------------------------|


                                                      
Eb|--8-----------8--------8----6--------6--5--------5-----------|
Bb|-----8-----8-----8-------------6-----------6-----------------|
Gb|--------9-----------9-------------7-----------5--------------|
Db|-------------------------------------------------------------|
Ab|-------------------------------------------------------------|
Eb|-------------------------------------------------------------|


                                                                   
Eb|-10--------------10----------10--8----------8--8-------------|
Bb|-----11------11------11-------------11------------10------10-|
Gb|---------12--------------12-------------10------------10-----|
Db|-------------------------------------------------------------|
Ab|-------------------------------------------------------------|
Eb|-------------------------------------------------------------|
  < - - - - - - - - - Play 2x first time, 1x second - - - - - - >


Rhythm Fig. 2b

Eb|--8-----------8--------8----6--------6--5--------5-----------|
Bb|-----8-----8-----8-------------6-----------6-----------------|
Gb|--------9-----------9-------------7-----------5--------------|
Db|-------------------------------------------------------------|
Ab|-------------------------------------------------------------|
Eb|-------------------------------------------------------------|


                                                                   
Eb|-10--------------10----------10--8----------8--8-------------|
Bb|-----11------11------11-------------11------------10------10-|
Gb|---------12--------------12-------------10------------10-----|
Db|-------------------------------------------------------------|
Ab|-------------------------------------------------------------|
Eb|-------------------------------------------------------------|




Rhythm Fig. 3
                                                                            
Eb|-------------------------------------------------------------|
Bb|--------4-----------6-------------8------------10------------|
Gb|-----------5-----------7-------------8-------------10--------|
Db|-----5-----------7-------------8-----------10----------------|
Ab|--3-----------5-------------6-----------8--------------------|
Eb|-------------------------------------------------------------|
   < - - - - - - - - - - - - - 2x - - - - - - - - - - - - - >



Rhythm Fig. 4
                                                          
Eb|-------------------------------------------------------------|
Bb|-------------------------------------------------------------|
Gb|--8--8--8--8--10--10--10--10---7--7--7--7--------------------|
Db|--8--8--8--8--10--10--10--10---7--7--7--7--5--5--5--5--------|
Ab|--6--6--6--6--8---8---8---8----5--5--5--5--5--5--5--5--------|
Eb|--6--6--6--6--8---8---8---8----5--5--5--5--3--3--3--3--------|


                                                       
Eb|-------------------------------------------------------------|
Bb|-------------------------------------------------------------|
Gb|--8--8--8--8--10--10--10--10---------------------------------|
Db|--8--8--8--8--10--10--10--10---------------------------------|
Ab|--6--6--6--6--8---8---8---8--------------------3--5----------|
Eb|--6--6--6--6--8---8---8---8-----3~---5~---6~-----------------|

[ Tab from: http://www.guitaretab.com/k/kiss/122370.html ]
                                                          
Eb|-------------------------------------------------------------|
Bb|-------------------------------------------------------------|
Gb|--8--8--8--8--10--10--10--10---7--7--7--7--------------------|
Db|--8--8--8--8--10--10--10--10---7--7--7--7--5--5--5--5--------|
Ab|--6--6--6--6--8---8---8---8----5--5--5--5--5--5--5--5--------|
Eb|--6--6--6--6--8---8---8---8----5--5--5--5--3--3--3--3--------|


                                                              
Eb|-------------------------------------------------------------|
Bb|-------------------------------------------------------------|
Gb|--8--8--8--8--8--8--8--8---10--10--10--10--10--10--10--10----|
Db|--8--8--8--8--8--8--8--8---10--10--10--10--10--10--10--10----|
Ab|--6--6--6--6--6--6--6--6---8---8---8---8---8---8---8---8-----|
Eb|--6--6--6--6--6--6--6--6---8---8---8---8---8---8---8---8-----|



Rhythm Fig. 5
                                             
Eb|-------2-----------------------------------------------------|
Bb|-------2-----------------------------------------------------|
Gb|-------2--------------7----7----9----9-----------------------|
Db|--4-------------------7----7----9----9-----------------------|
Ab|--4-------------------5----5----7----7-----------------------|
Eb|--2----------------------------------------------------------|



Rhythm Fig. 6

Eb|--------------3----------------------------------------------|
Bb|--------3-------3-----3---------1------1---------------------|
Gb|-----3-----3-------3---------3-----3------2------2-----------|
Db|--5-----------------------3-------------------3--------------|
Ab|-------------------------------------------------------------|
Eb|-------------------------------------------------------------|


Eb|----------------0--------------------------------------------|
Bb|---------1------------1------------3------1--------1---------|
Gb|-----0------0------0-----0------3-----3------2---------------|
Db|--2--------------------------3------------------3------------|
Ab|-------------------------------------------------------------|
Eb|-------------------------------------------------------------|


Eb|--------------3----------------------------------------------|
Bb|--------3-------3-----3---------1------1---------------------|
Gb|-----3-----3-------3---------3-----3------2------------------|
Db|--5-----------------------3-------------------3--------------|
Ab|-------------------------------------------------------------|
Eb|-------------------------------------------------------------|



Riff 1 
Eb|-------------------------------------------------------------|
Bb|-------------------------------------------------------------|
Gb|-------------------------------------------------------------|
Db|-------------------------------------------------------------|
Ab|-------------------------------------------------------------|
Eb|------2b^---r2-------------------------2b^---r2--------------|



Riff 2

Eb|--12----------------12-----------15----17--------------------|
Bb|--15b~--------------15b~---------18b---20b-------------------|
Gb|-------------------------------------------------------------|
Db|-------------------------------------------------------------|
Ab|-------------------------------------------------------------|
Eb|-------------------------------------------------------------|



Riff 3

Eb|-------------------------------------------------------------|
Bb|--12----------------12---------------------------------------|
Gb|--14b~--------------14b~-------------------------------------|
Db|-------------------------------------------------------------|
Ab|-------------------------------------------------------------|
Eb|-------------------------------------------------------------|




Solo

Eb|-------------------------------------------------------------|
Bb|-------------------------------------------------------------|
Gb|----------------------------------9h11----11~--------14--16--|
Db|------------7-9-11~----11~-----------------------------------|
Ab|--/9~-----9--------------------------------------------------|
Eb|-------------------------------------------------------------|


Eb|-------------------------------------------------------------|
Bb|-------------------------------------------------------------|
Gb|--16b--16b--16b--16b-------pb16-r16--pb16-r16--pb16-r16~-----|
Db|-------------------------------------------------------------|
Ab|-------------------------------------------------------------|
Eb|-------------------------------------------------------------|


Eb|-------------------------------------------------------------|
Bb|----------------------------------------17b-17b-17b-r17--14~-|
Gb|-14h16p14----14-14h16p14----x-14h16p14-----------------------|
Db|----------16-------------16----------------------------------|
Ab|-------------------------------------------------------------|
Eb|-------------------------------------------------------------|


Eb|--------------------------------------17b-r17-14-------------|
Bb|--17b~--------17b-17b-17b-r17--14~---------------17b-r17-14--|
Gb|-------------------------------------------------------------|
Db|-------------------------------------------------------------|
Ab|-------------------------------------------------------------|
Eb|-------------------------------------------------------------|


Eb|-------------------------------------------------------------|
Bb|-------------------------------------------------------------|
Gb|--16b-r16p14-------------------------------------------------|
Db|-------------17~---------------------------------------------|
Ab|-------------------------------------------------------------|
Eb|-------------------------------------------------------------|
	        Feedback




Dreaming
Stanley, Kulick

[Rhy. Fig 1 with Riff 1]

[Rhy. Fig 2a]
Close your eyes and take a look at your life
Do you like what you see?
My eyes are open but I feel like Im blind
Its all returning to me
[Rhy. Fig 2b]
I want to know 
Does a frozen river flow
Things we said, fill my head
Lying in a cold and empty bed

[Rhy. Fig 1 with Riff 1]
Im only dreaming
Between the darkness and the light
Im only dreaming
Oh ooh
Dreaming
Cant tell the daylight from the night
Im only dreaming
Dreaming

[Rhy. Fig 2a]
I feel the sunshine shining down on my face
Not a cloud in my mind
I get my wake up
But it never comes in time

[Rhy. Fig 3]
My prayers are spoken and I wait to recieve
Cause theres a fine line between the truth
And how we want it to be

[Rhy. Fig 1 with Riff 1]
Im only dreaming
Between the darkness and the light
Im only dreaming
Oh ooh
Dreaming
Cant tell the daylight from the night
Im only dreaming
Dreaming

[Rhy. Fig 4]
Im sailing like a ship on the sea
I dont care if Im lost in the haze
I hear the angels singing softly to me
Times the enemy
That you never see
Wont you come and slip away

[Solo over Rhy. Fig 5]

[Rhy. Fig 6]

[Rhy. Fig 1 with Riff 1]
I amd only dreaming
Im only dreaming
Im only dreaming
Yeah
I am only dreaming

[Rhy. Fig 1 with Riff 2]
Im only dreaming
Im only dreaming
Yeah
Im only dreaming
Dreaming

[Rhy. Fig 1 with Riff 2 and Riff 3]
Related for Dreamin tab