Guitaretab - guitar tabs
Song name
# A B C D E F G H I J K L M N O P Q R S T U V W X Y Z

Kiss - Shout It Out Loud tab

Eb Tuning

Key:
/    = slide up
\    = slide down
b    = bend (whole step)
b^   = bend (1/2 step)
pb   = pre-bend
r    = release-bend
h^   = hammer-on
p^   = pull-off
~    = Vibrato
*    = Natural Harmonic
#(#) = Trill
**   = Artificial Harmonic
x    = Muted String (Palm Muting)
X    = Muted String (Fretboard Muting)




Intro Riff. 1

Eb|----------------------------------------------------|
Bb|----16-16b~--16-16b~--16-16b-r16-14~----------------|
Gb|----------------------------------------------------|
Db|----------------------------------------------------|
Ab|----------------------------------------------------|
Eb|----------------------------------------------------|


Intro Riff. 1a

Eb|----------------------------------------------------|
Bb|----12~-12~--12~-12~--12-12b-r12-10~----------------|
Gb|----------------------------------------------------|
Db|----------------------------------------------------|
Ab|----------------------------------------------------|
Eb|----------------------------------------------------|


Rhythm Fig. 1

Eb|----------------------------------------------------|
Bb|----------------------------------------------------|
Gb|--4---------7--2--7--2-----4-4-4----7--2--7--2------|
Db|--4---------7--2--7--2-----4-4-4----7--2--7--2------|
Ab|--2---------5--0--5--0-----2-2-2----5--0--5--0------|
Eb|----------------------------------------------------|

Rhythm Fig. 2

Eb|----------------------------------------------------|
Bb|----------------------------------------------------|
Gb|----------------------------------------------------|
Db|-7-7-9--7-9-7--7-9-7-9--2-2-4--2-2-4-2--------------|
Ab|-5-5-5--5-5-5--5-5-5-5--0-0-0--0-0-0-0--2-2-4---2-4-|
Eb|----------------------------------------0-0-0-/4----|


Eb|----------------------------------------------------|
Bb|----------------------------------------------------|
Gb|------------------------------------4---------------|
Db|-7-7-9--7-9-7--7-9-7-9--2-2-4--2-4--4---------------|
Ab|-5-5-5--5-5-5--5-5-5-5--0-0-0--0-0--2---------------|
Eb|----------------------------------------------------|

Rhythm Fig. 3

Eb|----------------------------------------------------|
Bb|----------------------------------------------------|
Gb|-4-4-4-4-4-4-2---9/11-------------------------------|
Db|-4-2-4-2-4-2-2---7/9--------------------------------|
Ab|-2---2---2---0--------------------------------------|
Eb|----------------------------------------------------|


Rhythm Fig. 3a

Eb|----------------------------------------------------|
Bb|----------------------------------------------------|
Gb|-4-5-4-5-4-5-2---9/11-------------------------------|
Db|-4-4-4-4-4-4-2---7/9--------------------------------|
Ab|-4-6-4-6-4-6-0--------------------------------------|
Eb|----------------------------------------------------|

Rhythm Fig. 4
[ Tab from: http://www.guitaretab.com/k/kiss/21989.html ]
Eb|----------------------------------------------------|
Bb|----------------------------------------------------|
Gb|-4-4-4-4-4-4-2--------------------------------------|
Db|-4-2-4-2-4-2-2--------------------------------------|
Ab|-2---2---2---0--------------------------------------|
Eb|----------------------------------------------------|

Solo

Eb|----------------------------------------------------|
Bb|--15----15--15--15--15--15---15b-r15----14----------|
Gb|--17b~~-17b-17b-17b-17b-17b----------14----14-------|
Db|----------------------------------------------------|
Ab|----------------------------------------------------|
Eb|----------------------------------------------------|

Eb|----------------------------------------------------|
Bb|----------------------15----15--15--15--15--15------|
Gb|----------------------17b~~-17b-17b-17b-17b-17b-----|
Db|----------------12-0--------------------------------|
Ab|--12-11--12h^14-------------------------------------|
Eb|-------0--------------------------------------------|

Eb|----------------------------------------------------|
Bb|--15b-r15----14-------------14b-r14p^12------12-----|
Gb|----------14----14-----11~--------------13----------|
Db|--------------------9~------------------------------|
Ab|----------------------------------------------------|
Eb|----------------------------------------------------|
                               <------2x----->

SHOUT IT OUT LOUD - Paul Stanley, Gene Simmons, Bob Ezrin

[Intro Riff 1a w/ Intro Riff. 1] (2x)

[Rhythm Fig. 1]
Well, the night's begun and you want some fun
Do you think you're gonna find it (think you're gonna find it)
You got to treat yourself like number one
Do you need to be reminded (need to be reminded)

[Rhythm Fig. 2]
It doesn't matter what you do or say
Just forget the things that you've been told
We can't do it any other way
Everybody's got to rock and roll, whoo, oh, oh

[Rhythm Fig. 3]
Shout it, shout it, shout it out loud
[Rhythm Fig. 4]
Shout it, shout it, shout it out loud

[Rhythm Fig. 1]
If you don't feel good, there's a way you could
Don't sit there broken hearted (sit there broken hearted)
Call all your friends in the neighborhood
And get the party started (get the party started)

[Rhythm Fig. 2]
Don't let 'em tell you that there's too much noise
They're too old to really understand
You'll still get rowdy with the girls and boys
'Cause it's time for you to take a stand, yeah, yeah

[Rhythm Fig. 3] w/ [Rhythm Fig. 3a]
Shout it, shout it, shout it out loud
[Rhythm Fig. 4]
Shout it, shout it, shout it out loud

[Rhythm Fig. 2 (2x) w/Solo]

Shout it, shout it, shout it out loud
You've got to have a party
Shout it, shout it, shout it out loud
Turn it up louder
Shout it, shout it, shout it out loud
Everybody shout it now
Shout it, shout it, shout it out loud
Oh yeah

[Rhythm Fig. 4] (Repeat Until End)
Shout it, shout it, shout it out loud
Hear it gettin' louder
Shout it, shout it, shout it out loud
And everybody shout it now
Shout it, shout it, shout it out loud

any questions e-mail me at ugotownedlikeudowiththeladies@yahoo.com
Related for Shout It Out Loud tab
×
Best way to learn
"Shout It Out Loud"