Guitaretab - guitar tabs
Song name
# A B C D E F G H I J K L M N O P Q R S T U V W X Y Z
Home / K / Kiss / She tab

Kiss - She tab

Tuned down 1/2-step

Comments: Once again enough guitars to sink a battleship. The "a"-forms are
Paul on the left, and the "b"-forms are Ace on the right. On top of that 
there is another guitar on the left which pretty much mirrors Paul's rhythm
during the verse but then goes out on its own in the chorus (the "c"-form).
The song is basically built on one riff that mutates ever so slightly. The
main solo is doubled, and I've notated it here by connecting two staffs.


Key:
/    = slide up
\    = slide down
b    = bend (whole step)
b^   = bend (1/2 step)
b^^  = bend (1 1/2 steps)
pb   = pre-bend
r    = release-bend
t    = tap with righthand finger
h    = hammer-on
p    = pull-off
~    = Vibrato
*    = Natural Harmonic
#(#) = Trill
**   = Artificial Harmonic
x    = Dead notes (no pitch)
P.M. = Palm mute (- -> underneath indicates which notes)
(\)  = Dive w\bar
(/)  = Release w\bar
Tp   = Tap w\plectrum





Rhythm Fig. 1
                                                          
Eb|-------------------------------------------------------|
Bb|-------------------------------------------------------|
Gb|------------12--12\------------------------------------|
Db|--5--5------12--12\-------------3~-----------3~--------|
Ab|--5--5------10--10\------3-4-5------5-3-4-5------5-----|
Eb|--3--3-------------------------------------------------|


                                                     
Eb|-------------------------------------------------------|
Bb|-------------------------------------------------------|
Gb|------------12--12\--------------------------3---------|
Db|--5--5------12--12\-------------3~-----------3---------|
Ab|--5--5------10--10\------3-4-5------5-3-4-5------------|
Eb|--3--3-------------------------------------------------|




Rhythm Fig. 2a
                                                     
Eb|-------------------------------------------------------|
Bb|-------------------------------------------------------|
Gb|--------3----------5------------3------5--3----3-------|
Db|--5--5--3----5--5--5------------3------5--3----3-------|
Ab|--5--5-------5--5--------3-4-5-------5-------5---------|
Eb|--3--3-------3--3--------------------------------------|




Rhythm Fig. 2b
                                                   
Eb|-------------------------------------------------------|
Bb|-------------------------------------------------------|
Gb|-------------------------------------------------------|
Db|--5--5------5--5--------------3------5--3----3---------|
Ab|--5--5------5--5-------3-4-5-------5-------5-----------|
Eb|--3--3------3--3---------------------------------------|




Rhythm Fig. 3a
                                                      
Eb|-------------------------------------------------------|
Bb|-------------------------------------------------------|
Gb|--------3----------5------------3------------3---------|
Db|--5--5--3----5--5--5------------3------------3---------|
Ab|--5--5-------5--5--------3-4-5------5-3-4-5------5-----|
Eb|--3--3-------3--3--------------------------------------|




Rhythm Fig. 3b
                                                      
Eb|-------------------------------------------------------|
Bb|-------------------------------------------------------|
Gb|-------------------------------------------------------|
Db|--5--5-------5--5---------------3------------3---------|
Ab|--5--5-------5--5--------3-4-5------5-3-4-5------5-----|
Eb|--3--3-------3--3--------------------------------------|







Rhythm Fig. 4a
                                                        
Eb|-------------------------------------------------------|
Bb|-------------------------------------------------------|
Gb|--------5-3---------5-3-----------3---3---5--3----3----|
Db|--5--5--5-3---5--5--5-3-----------3---3---5--3----3----|
Ab|--5--5--------5--5---------3-4-5--------5-------5------|
Eb|--3--3--------3--3-------------------------------------|




Rhythm Fig. 4b
                                                       
Eb|-------------------------------------------------------|
Bb|-------------------------------------------------------|
Gb|--------5-3---------5-3--------------------------------|
Db|--5--5--5-3---5--5--5-3-----------3-------5--3----3----|
Ab|--5--5--------5--5---------3-4-5--------5-------5------|
Eb|--3--3--------3--3-------------------------------------|




Rhythm Fig. 5a
                                                       
Eb|-------------------------------------------------------|
Bb|-------------------------------------------------------|
Gb|--------------------3-------------------------3--------|
Db|--5--5--5-3---------3---5---5--5--5-3---------3--------|
Ab|--5--5--------5-3-5---------5--5--------5-3-5----------|
Eb|--3--3----------------------3--3-----------------------|




Rhythm Fig. 5b
                                                       
Eb|-------------------------------------------------------|
Bb|-------------------------------------------------------|
Gb|--------------------3~------------------------3~-------|
Db|--5--5--5-3-------------5---5--5--5-3------------------|
Ab|--5--5--------5-3-5---------5--5--------5-3-5----------|
Eb|--3--3----------------------3--3-----------------------|




Rhythm Fig. 6  
                                                        
Eb|-------------------------------------------------------|
Bb|-------------------------------------------------------|
Gb|----------------3---------3---------3------------------|
Db|------------3-5----5-3-5-----5-3-5-----5-3-5-3----3----|
Ab|-----2-3-5-------------------------------------5-------|
Eb|--3----------------------------------------------------|





Rhythm Fig. 7
                                                      
Eb|-------------------------------------------------------|
Bb|-------------------------------------------------------|
Gb|-------------------------------------------------------|
Db|--5--5------5--5----------------3~-----------3~--------|
Ab|--5--5------5--5---------3-4-5------5-3-4-5------5-----|
Eb|--3--3------3--3/-15\----------------------------------|



Rhythm Fig. 8a
                                              
Eb|-------------------------------------------------------|
Bb|-------------------------------------------------------|
Gb|----2----2----2----2-----2----2----2----2----2----2----|
Db|----2----2----2----2-----2----2----2----2----2----2----|
Ab|----0----0----0----0-----0----0----0----0----0----0----|
Eb|-------------------------------------------------------|


                                                      
Eb|--------------0--0-------------------------------------|
Bb|-----------3--------2---------3------------------------|
Gb|----2------------------2-------------2-----------------|
Db|----2--2h4----------------2h4----4p2-------------------|
Ab|----0--------------------------------------------------|
Eb|-------------------------------------------------------|
       Let ring - - - - - - - - - - - - - >



Rhythm Fig. 8b
                                              
Eb|-------------------------------------------------------|
Bb|-------------------------------------------------------|
Gb|----9----9----9----9-----9----9----9----9----9----9----|
Db|----7----7----7----7-----7----7----7----7----7----7----|
Ab|----0----0----0----0-----0----0----0----0----0----0----|
Eb|-------------------------------------------------------|


                                           
Eb|-------------------------------------------------------|
Bb|-------------------------------------------------------|
Gb|----9----9---9-----------------------------------------|
Db|----7----7---7-----------------------------------------|
Ab|----0----0---0-----------------------------------------|
Eb|-------------------------------------------------------|


Rhythm Fig. 8c
                                            
Eb|-------------------------------------------------------|
Bb|-------------------------------------------------------|
Gb|-----2----2--------------2--2--------------------------|
Db|-----2----2--------------2--2--------------------------|
Ab|--0--0----0--------------0--0--------------------------|
Eb|-------------------------------------------------------|
    < - - 3x - - >




Rhythm Fig. 9a                                          

Eb|-------------------------------------------------------|
Bb|----------3------------3--------------3----------------|
Gb|----------3------------3--------------3--------3----5--|
Db|----------3------------3--------------3--------3----5--|
Ab|-----------------------------------------------1----3--|
Eb|-------------------------------------------------------|




Rhythm Fig. 9b
                                                           
Eb|-------------------------------------------------------|
Bb|-------------------------------------------------------|
Gb|-----------------------------------------------3----5--|
Db|--3/5-x-x-5---x-3/5-x-x-5---x-3/5-x-x-5---3/5--3----5--|
Ab|------x-x-----x-----x-x-----x-----x-x----------1----3--|
Eb|--1/3-x-x-3---x-1/3-x-x-3---x-1/3-x-x-3---1/3----------|




Rhythm Fig. 10
                                        
Eb|-------------------------------------------------------|
Bb|-------------------------------------------------------|
Gb|-------------------------------------------------------|
Db|--5--5-------------------------------------------------|
Ab|--5--5-------------------------------------------------|
Eb|--3--3-------------------------------------------------|




Rhythm Fig. 11 
                                               
Eb|-------------------------------------------------------|
Bb|-------------------------------------------------------|
Gb|--9----9-----------------9----9------------------------|
Db|--9----9-----------3~----9----9-----------3~-----------|
Ab|--7----7----3-4-5--------7----7----3-4-5---------------|
Eb|-------------------------------------------------------|



Riff 1

Eb|-------------------------------------------------------|
Bb|-------------------------------------------------------|
Gb|-------------------------------------------------------|
Db|-------------------------------------------------------|
Ab|-------------------------------------------------------|
Eb|--15\--------------------------------------------------|



Riff 2

Eb|-------------------------------------------------------|
Bb|-------------------------------------------------------|
Gb|--3----5-----------------------------------------------|
Db|--3----5-----------------------------------------------|
Ab|--1----3-----------------------------------------------|
Eb|-------------------------------------------------------|



Intro solo
[ Tab from: http://www.guitaretab.com/k/kiss/9879.html ]
Eb|-------------------------------------------------------|
Bb|-------------------------------------------------------|
Gb|--pb5--------r5---5--5--5--5p3~------------------------|
Db|------------------------------------5p3-5~-------------|
Ab|-------------------------------------------------------|
Eb|-------------------------------------------------------|
     Slow release


Eb|-------------------------------------------------------|
Bb|-------15--18--15--18b~-----18b~------18b-r18-15-------|
Gb|--17b--------------------------------------------------|
Db|-------------------------------------------------------|
Ab|-------------------------------------------------------|
Eb|-------------------------------------------------------|



Eb|--17b-r17p15-------------------------------------------|
Bb|-------------17b-r17p15--------------------------------|
Gb|------------------------17b-r17p15----15h17-15~--------|
Db|-----------------------------------17------------------|
Ab|-------------------------------------------------------|
Eb|-------------------------------------------------------|




Solo 1

Eb|--5p--r5p--3-------------------------------------------|
Bb|--------------5b--r5p--3-------------------------------|
Gb|--------------------------5b--r5p--3-------------------|
Db|--------------------------------------5b--r5p--3-------|
Ab|-------------------------------------------------------|
Eb|-------------------------------------------------------|
  |                                                       |
  |                                                       |
  |                                                       |
Eb|--17b-r17p15-------------------------------------------|
Bb|--------------17b-r17p15-------------------------------|
Gb|--------------------------17b-r17p15-------------------|
Db|--------------------------------------17b-r17p15-------|
Ab|-------------------------------------------------------|
Eb|-------------------------------------------------------|




Eb|-------------------------------------------------------|
Bb|-------------------------------------------------------|
Gb|---------------5b---5b---5b--r5---3h-5--3~-------------|
Db|--------3----------------------------------------------|
Ab|--3h-5-----5-------------------------------------------|
Eb|-------------------------------------------------------|
  |                                                       |
  |                                                       |
  |                                                       |
Eb|-------------------------------------------------------|
Bb|-------------------------------------------------------|
Gb|---------------17b--17b--17b-r17-15h17-15~-------------|
Db|--------15---------------------------------------------|
Ab|--15h17----17------------------------------------------|
Eb|-------------------------------------------------------|





Eb|-------------------------------------------------------|
Bb|--3-----3----------------------------------------------|
Gb|--5b----5b----5--5b--r5p-3-----5----3-------5b---5b----|
Db|----------------------------5-----5----5---------------|
Ab|-------------------------------------------------------|
Eb|-------------------------------------------------------|
  |                                                       |
  |                                                       |
  |                                                       |
Eb|-------------------------------------------------------|
Bb|--15----15---------------------------------------------|
Gb|--17b---17b---17-17b-r17p15----15----17-----17b--17b---|
Db|----------------------------17----17----17-------------|
Ab|-------------------------------------------------------|
Eb|-------------------------------------------------------|





Eb|-------------------------------------------------------|
Bb|-------------------------------------------------------|
Gb|--5b--r5--3h-5--3~-------------------------------------|
Db|-------------------------------------------------------|
Ab|-------------------------------------------------------|
Eb|-------------------------------------------------------|
  |                                                       |
  |                                                       |
  |                                                       |
Eb|-------------------------------------------------------|
Bb|-------------------------------------------------------|
Gb|--17b-r17-15h17-15~------------------------------------|
Db|-------------------------------------------------------|
Ab|-------------------------------------------------------|
Eb|-------------------------------------------------------|





Eb|--5p--r5p--3-------------------------------------------|
Bb|--------------5b--r5p--3-------------------------------|
Gb|--------------------------5b--r5p--3-------------------|
Db|--------------------------------------5b--r5p--3-------|
Ab|-------------------------------------------------------|
Eb|-------------------------------------------------------|
  |                                                       |
  |                                                       |
  |                                                       |
Eb|--12b-r12p10-------------------------------------------|
Bb|--------------12b-r12p10-------------------------------|
Gb|--------------------------12b-r12p10-------------------|
Db|--------------------------------------12b-r12p10-------|
Ab|-------------------------------------------------------|
Eb|-------------------------------------------------------|





Eb|-------------------------------------------------------|
Bb|-------------------------------------------------------|
Gb|---------------5b---5b---5b--r5---3h-5--3~-------------|
Db|--------3----------------------------------------------|
Ab|--3h-5-----5-------------------------------------------|
Eb|-------------------------------------------------------|
  |                                                       |
  |                                                       |
  |                                                       |
Eb|-------------------------------------------------------|
Bb|-------------------------------------------------------|
Gb|---------------12b--12b--12b-r12-10h12-10~-------------|
Db|--------10---------------------------------------------|
Ab|--10h12----12------------------------------------------|
Eb|-------------------------------------------------------|





Eb|-----------3-------------------------------------------|
Bb|--6p-3---------3---6b---6b---6b--r6--3--6--6b~---------|
Gb|--------5----------------------------------------------|
Db|-------------------------------------------------------|
Ab|-------------------------------------------------------|
Eb|-------------------------------------------------------|
  | < - 5x - - >                                          |
  |                                                       |
  |                                                       |
Eb|-----------15------------------------------------------|
Bb|--18p15--------15--18b--18b--18b-r18-15-18-18b~--------|
Gb|--------17---------------------------------------------|
Db|-------------------------------------------------------|
Ab|-------------------------------------------------------|
Eb|-------------------------------------------------------|






Solo 2

Eb|-------------------------------------------------------|
Bb|-------------------------------------------------------|
Gb|--x-pb5---r5----x-3~-----------------------------------|
Db|------------------------x-3~---------------------------|
Ab|--------------------------------x-1~-------------------|
Eb|-------------------------------------------------------|



Eb|-------------------------------------------------------|
Bb|-------------------------------------------------------|
Gb|----------------------------3b-------------------------|
Db|--x-5----x-5---x-5---x-5-------------------------------|
Ab|-------------------------------------------------------|
Eb|-------------------------------------------------------|
                              1/4-step bend


Eb|-------------------------------------------------------|
Bb|-------------------------------------------------------|
Gb|--x-5---x-3---------------3--3--3----------------------|
Db|--------------x-3---x-5--------------------------------|
Ab|-------------------------------------------------------|
Eb|-------------------------------------------------------|



Eb|-------------------------------------------------------|
Bb|-------------------------------------------------------|
Gb|-------------------------------------------------------|
Db|--3-3---3--3--3-3h5p3----------------------------------|
Ab|----------------------5-4-3-1--------------------------|
Eb|------------------------------3-1-0-3/5~---------------|




Outro solo

Eb|-------------------------------------------------------|
Bb|--pb15--r15--15--12-------12-15b~---15b~---15b~--------|
Gb|---------------------14b-------------------------------|
Db|-------------------------------------------------------|
Ab|-------------------------------------------------------|
Eb|-------------------------------------------------------|




Eb|--------------------------------12---------------------|
Bb|--15b~----15b-r15-12---(12)--12-----15-12----12-12h15p-|
Gb|------------------12---14b----------------14-----------|
Db|-------------------------------------------------------|
Ab|-------------------------------------------------------|
Eb|-------------------------------------------------------|




Eb|------------15b~----15b~--15b--15--12--15--------------|
Bb|--12----12---------------------------------------------|
Gb|-----14------------------------------------------------|
Db|-------------------------------------------------------|
Ab|-------------------------------------------------------|
Eb|-------------------------------------------------------|
                                           (fade out)




SHE
Gene Simmons, Stephen Coronel

[Rhy. Fig 1 w/ Riff 1]
[Rhy. Figs 2a, 2b and 7] (2x)
[Intro solo over Rhy. Fig 6 (2x)]

[Rhy. Fig 3b]
She walks by moonlight
[Rhy. Fig 3 w/ Rhy. Fig 7]
No one really knows
[Rhy. Fig 3]
Enchanted starlight
[Rhy. Fig 3 w/ Rhy. Fig 7]
Never goin' home

[Rhy. Figs 8a, 8b and 8c]
I know she's goin' down, goin'
Everybody knows she's so good

[Rhy. Fig 3a, 3b and 7]

[Rhy. Fig 3b]
Doin' well for others
[Rhy. Fig 3 w/ Rhy. Fig 7]
She doesn't really know
[Rhy. Fig 3b]
The powers are within her
[Rhy. Fig 3 w/ Rhy. Fig 7]
As she takes off her clothes

[Rhy. Figs 8a, 8b and 8c]
I know she's goin' down, goin'
Everybody knows she's so good

[Rhy. Figs 3a, 3b and 7] (2x)
[Rhy. Fig 4a w/ Rhy. Fig 4b] (2x)
[Rhy. Fig 5a w/ Rhy. Fig 5b] (2x)

[Bass only]
[Riff 2]
[Rhy. Fig 9a w/ Rhy. Fig 9b] (2x)
[Solo 1 over Rhy. Fig 9a w/ Rhy. Fig 9b]

[Solo 2]
Doin' well for others
She doesn't really know
The powers are within her
As she takes off her clothes

[Rhy. Figs 8a, 8b and 8c]
I know she's goin' down, goin'
Everybody knows she's so good

[Rhy. Fig 10]
[Outro solo over Rhy. Fig 11]
Related for She tab
She chords by Kiss