Song name
# A B C D E F G H I J K L M N O P Q R S T U V W X Y Z

Kittie - Wolves tab

"Wolves"
   by Kittie
        transcribed by Rodrigo G. T. (neonecrogenesis)

Tuning:  Drop D then transposed down a whole step (C G C F A D)
(#) = Palm mute


Intro (8x)
D|-----------------|
A|-----------------|
F|-----------------|
C|-3-22-4-33-5-3-6-| After 8th time, play     C|-2-|
G|-3-22-4-33-5-3-6-| this and hold throughout G|-2-|                    
C|-3-22-4-33-5-3-6-| bass part:               c|-2-|

Pre-Chorus ("Nothing, amounts to nothing...") (8x)
Palm-mute entire section

D|-------------------------|
A|-------------------------|
F|-------------------------|
C|-2-1-0-3-2-0-2-1-0-3-2-4-|
G|-2-1-0-3-2-0-2-1-0-3-2-4-|
C|-2-1-0-3-2-0-2-1-0-3-2-4-|

Chorus (8x)

D|-----------(4)-----------|
A|-------------------------|
F|-------------------------|
C|-(3)(1)(1)-----(1)(1)(1)-|	
G|-(3)(1)(1)-----(1)(1)(1)-|
C|-(3)(1)(1)-----(1)(1)(1)-|

Pre-Outro (No vocal section) (4x)

D|-----|
A|-----|
F|-----|
C|-1-0-|
G|-1-0-|
C|-1-0-|

Outro, Part A ("If, I, Could...") (8x)

D|-----------(4)-|
A|---------------|
F|---------------|
C|-(3)(1)(1)-----|
G|-(3)(1)(1)-----|
C|-(3)(1)(1)-----|

Outro, Part B ("If I could I would...") (8x)

D|-------------|
A|-------------|
F|-------------|
C|-------------|
G|-------2-1-0-|
C|-2-1-0-------|

Outro, Last Part

D|------|
A|------|
F|------|
C|-1-0--|
G|-1-0--|
C|-1-0--|

lirycs
Wolves  Kittie


It crawls along the floor subdued

( nothing amounts to nothing realizing nothing 
afraid of nothing to act upon nothing stopping at nothing consider nothing 
consequence nothing)

(comes back, like wolves)

 nothing hydra-head times six cowering nothing subdued

( nothing amounts to nothing realizing nothing 
afraid of nothing to act upon nothing stopping at nothing consider nothing 
consequence nothing)

(comes back, like wolves)

 (if I could I would have begged you)
Tap to rate this tab
# A B C D E F G H I J K L M N O P Q R S T U V W X Y Z