Song name
# A B C D E F G H I J K L M N O P Q R S T U V W X Y Z

Kittie - Whiskey Love Song tab

I tabbed this using a live video as a reference so I'm not sure how accurate it really
but it sounds good to me.

D|------------------------------------------------------------------------------|
A|------------------------------------------------------------------------------|
F|------------------------------------------------------------------------------|
C|-0-0-------------3-6-5-3-------------0-0------------3-6-5-3-------------------|
G|-0-0--5---3--5-----------6-5-3-5-----0-0--5----3-5----------6-5-3-------------|
C|-0-0----7----------------------------0-0-----7--------------------------------|

D|-------------------------------------------------------------------------------|
A|-------------------------------------------------------------------------------|
F|-------------------------------------------------------------------------------|
C|-0-0-------------3-6-5-3--------------0-0--------------------------------------|
G|-0-0--5---3--5-----------6-5-3-5------0-0--------------------------------------|
C|-0-0----7-----------------------------0-0--------------------------------------|

D|--------------------------------------------------------------|
A|--------------------------------------------------------------|
F|--------------------------------------------------------------|
C|-3-0-0-0-0-0---------1-1-1-1-1-1-1-1--------------------------|
G|-3-0-0-0-0-0--[x4]---1-1-1-1-1-1-1-1--------------------------|
C|-3-0-0-0-0-0---------1-1-1-1-1-1-1-1--------------------------|
^ repeat a bunch of times

Play the following pull-off’s quickly.

D|--------------------------------------------------------------|
A|--------------------------------------------------------------|
F|--------------------------------------------------------------|
C|-7p9-7p9-7p10-7p9--3-3--5-5-----------------------------------|
G|-7p9-7p9-7p10-7p9--3-3--5-5--[x3]-----------------------------|
C|-7p9-7p9-7p10-7p9--3-3--5-5-----------------------------------|

D|--------------------------------------------------------------|
A|--------------------------------------------------------------|
F|--------------------------------------------------------------|
C|-7p9-7p9-7p9--10-10-10-10-10-10-10----------------------------|
G|-7p9-7p9-7p9--10-10-10-10-10-10-10----------------------------|
C|-7p9-7p9-7p9--10-10-10-10-10-10-10----------------------------|


D|------------------------------------------------------------------------------|
A|------------------------------------------------------------------------------|
F|------------------------------------------------------------------------------|
C|-0-0-------------3-6-5-3-------------0-0------------3-6-5-3-------------------|
G|-0-0--5---3--5-----------6-5-3-5-----0-0--5----3-5----------6-5-3-------------|
C|-0-0----7----------------------------0-0-----7--------------------------------|


D|---------------------------------------------------------------------------------|
A|---------------------------------------------------------------------------------|
F|-------------------------------------------[not strumming pattern]---------------|
C|-0-0-------------3-6-5-3--------------1-1-1-1--3-3-3-3---------------------------|
G|-0-0--5---3--5-----------6-5-3-5------1-1-1-1--3-3-3-3---------------------------|
C|-0-0----7-----------------------------1-1-1-1--3-3-3-3---------------------------|

Repeat last two bars.

D|--------------------------------------------------------------|
A|--------------------------------------------------------------|
F|--------------------------------------------------------------|
C|-3-0-0-0-0-0---------1-1-1-1-1-1-1-1--------------------------|
G|-3-0-0-0-0-0--[x4]---1-1-1-1-1-1-1-1--------------------------|
C|-3-0-0-0-0-0---------1-1-1-1-1-1-1-1--------------------------|
^ repeated a bunch of times

D|--------------------------------------------------------------|
A|--------------------------------------------------------------|
F|--------------------------------------------------------------|
C|-7p9-7p9-7p10-7p9--3-3--5-5-----------------------------------|
G|-7p9-7p9-7p10-7p9--3-3--5-5--[x3]-----------------------------|
C|-7p9-7p9-7p10-7p9--3-3--5-5-----------------------------------|

D|--------------------------------------------------------------|
A|--------------------------------------------------------------|
F|--------------------------------------------------------------|
C|-7p9-7p9-7p9--10-10-10-10-10-10-10----------------------------|
G|-7p9-7p9-7p9--10-10-10-10-10-10-10----------------------------|
C|-7p9-7p9-7p9--10-10-10-10-10-10-10----------------------------|

D|------------------------------------------------------------------------------|
A|------------------------------------------------------------------------------|
F|------------------------------------------------------------------------------|
C|-0-0-------------3-6-5-3-------------0-0------------3-6-5-3-------------------|
G|-0-0--5---3--5-----------6-5-3-5-----0-0--5----3-5----------6-5-3-------------|
C|-0-0----7----------------------------0-0-----7--------------------------------|


D|---------------------------------------------------------------------------------|
A|---------------------------------------------------------------------------------|
F|-------------------------------------------[not strumming pattern]---------------|
C|-0-0-------------3-6-5-3--------------1-1-1-1--3-3-3-3---------------------------|
G|-0-0--5---3--5-----------6-5-3-5------1-1-1-1--3-3-3-3---------------------------|
C|-0-0----7-----------------------------1-1-1-1--3-3-3-3---------------------------|

Repeat last two bars.

D|-------------------------------------------|
A|-------------------------------------------|
F|-------------------------------------------|
C|-strum-0--------3--------------------------|
G|-strum-0---3-4---4-3p4h3---[x3-------------|
C|-strum-0----------------------5------------|

D|---------------------------------------|
A|---------------------------------------|
F|------------------------3-0------------|
C|-strum-0--------3-5--------------------|
G|-strum-0---3-4-------------------------|
C|-strum-0-------------------------------|

Solo

D|------------------------------------------------------------------------------|
A|------------------------------------------------------------------------------|
F|------------------------------------------------------------------------------|
C|-0-0-------------3-6-5-3-------------0-0------------3-6-5-3-------------------|
G|-0-0--5---3--5-----------6-5-3-5-----0-0--5----3-5----------6-5-3-------------|
C|-0-0----7----------------------------0-0-----7--------------------------------|


D|---------------------------------------------------------------------------------|
A|---------------------------------------------------------------------------------|
F|-------------------------------------------[not strumming pattern]---------------|
C|-0-0-------------3-6-5-3--------------1-1-1-1--3-3-3-3---------------------------|
G|-0-0--5---3--5-----------6-5-3-5------1-1-1-1--3-3-3-3---------------------------|
C|-0-0----7-----------------------------1-1-1-1--3-3-3-3---------------------------|

Repeat last two bars.

Strum open.
Tap to rate this tab
 
# A B C D E F G H I J K L M N O P Q R S T U V W X Y Z