Guitaretab - guitar tabs
Song name
# A B C D E F G H I J K L M N O P Q R S T U V W X Y Z

Kodaline - All I Want tab

Solo

e|---5---5-7--8---7----8-7-5--5---------------|
B|--6---6--------8----8----6----6-------------|
G|-7---7--------7----7-----7-----7------------|
D|--------------------------------------------|
A|--------------------------------------------|
E|--------------------------------------------|

e|------------------------------------------------------------12--12--12------|
B|-------------------------12--12--12--13--13--13--15--15--15-----------------|
G|-12--12--12--14--14--14-----------------------------------------------------|
D|---12--12--12--12--12--12--12--12--12--12--12--12--12--12--12--12--12-------|
A|----------------------------------------------------------------------------|
E|----------------------------------------------------------------------------|

e|-13--13--13--15------------------------|
B|---------------------------------------|
G|---------------------------------------|
D|---12--12--12--------------------------|
A|---------------------------------------|
E|---------------------------------------|

Ooh Ooh Ooh's
Am, F, C, G. (x2)

e|-----------------------------------------------------|
B|---13--13--13--13--13--13--15--15--15--15--15--15----|
G|-12--12--12--12--12--12--12--12--12--12--12--12------|
D|-----------------------------------------------------|
A|-----------------------------------------------------|
E|-----------------------------------------------------|
[ Tab from: http://www.guitaretab.com/k/kodaline/349681.html ]
e|---12--12--12--12--12--12----------------------------|
B|---------------------------15--15--13--13--12--13----|
G|-12--12--12--12--12--12--12--12--12--12--12--12------|
D|-----------------------------------------------------|
A|-----------------------------------------------------|
E|-----------------------------------------------------|

e|-------15-----------15----------15----------15---------|
B|---13-------13--13------13--13------13--13------13-----|
G|-14--14---14--14--14--14--14--14--14--14--14--14-------|
D|-------------------------------------------------------|
A|-------------------------------------------------------|
E|-------------------------------------------------------|

e|-------17-----------17----------17----------19--19-----|
B|---18-------18--18------18--18------18--18-------------|
G|-17--17---17--17--17--17--17--17--17--17--17--17-------|
D|-------------------------------------------------------|
A|-------------------------------------------------------|
E|-------------------------------------------------------|

e|-------20-----------20----------20----------20---------|
B|---17-------17--17------17--17------17--17------17-----|
G|-17--17---17--17--17--17--17--17--17--17--17--17-------| 
D|-------------------------------------------------------|
A|-------------------------------------------------------|
E|-------------------------------------------------------|

e|---19--19--19--17--17--17------------------------------|
B|---------------------------20--20--20--18--18--18--17--|
G|-17--17--17--17--17--17--17--17--17--17--17--17----17--|
D|-------------------------------------------------------|
A|-------------------------------------------------------|
E|-------------------------------------------------------|
Related for All I Want tab
All I Want chords by Kodaline