Song name
# A B C D E F G H I J K L M N O P Q R S T U V W X Y Z

Koji Kondo - Midnas Lament tab

----------------------------------------------------------------------------
 Koji Kondo - Midna's Lament & Yasunori Mitsuda - At the Bottom of the Night
----------------------------------------------------------------------------
Tabbed by: Dean (R0ughbusiness1)
E-mail: begeyaaron@yahoo.com

In this song, I take parts of Midna's Lament
 (composed by Koji Kondo) and At the Bottom
of the Night (composed by Yasunori Mitsuda)
and put them together.
This tab may seem difficult, but It's
played at the same pace as At
the Bottom of the night, so it really isn't.
Also, I wrote these tabs based on how I hear the
Songs, so if it sounds different to you, well, too bad :)

Tuning: Drop D

e|--0--0-------0-------0-------0-3-0-----------1-0----------------0---------|
B|--1--0------1-------1-------1-----1----------------1-0-----0---0----------|
G|--2--2-----2-------2-------2-------2-----2--2-2---2-2---2-0---2-----------|
D|--3--3----3-------3-------3---------3\2----3-----3-----3-3---3------------|
A|--0--0---0-------0-------0----------------0-----0-----0-----0-------------|
D|--0--0--0-------0-------0----------------0-----0-----0-----0--------------|

e|-------5-0----5-0----0--------------1-0---------0-1-3-----3-------3-------|
B|------3--0---3--0---0----------------1----1-3-------1---1-0------0--------|
G|-----2------2------2-------2-0--2--2-----2-2---2-------2--------2---------|
D|----3------3------3-------3-3-----3-----3-----3-------3--------3----------|
A|---0------0------0-------0-------0-----0-----0-------0--------0-------0---|
D|--0------0------0-------0-------0-----0-----0-------0--------0-------0----|

e|---8---------0-----------------5--------------5---------------------------|
B|--6-8-6-5---5------5-3-5--6---6-------6--5---5-----6--8----10--------10---|
G|--------5--5-------5------7--7-------7-7-5--5-------7-7-7--10---10-----10-|
D|----------0-------0---------8-------8------8-------8----5-----10--10------|
A|---------0-------0---------5-------5------5-------5----------8------8-----|
D|--------0-------0---------5-------5------5-------5----5----8--------------|

e|--0-----0--------0----------0-----5-0-----0-----0-------------5-----------|
B|--8-------3--2---1---------1---1/3--0---5-6---5-6-5-5-6-------5----6--8---|
G|----0h5-5-0-0-0--2--2-----2---------------5-----5--7----5-----7-----7--7--|
D|----------0------3-------3-------------7--7--7--7---------7h8-8---8--5----|
A|--0-----0--------0------0--------------------------------5----5--5--------|
D|-----------------0-0---0------------0-------0-----------5-----5-5---------|

e|------------------0-----0---0-0--------3-5-8/10--10---------10----0-----0-|
B|--10--------10----8-----------------3/5----------10----10-----10--8-------|
G|--10---10-----10----0h5-5-5-5-5---/5-----------------10--10---------0h5-5-|
D|-----10--10----------------------------------------10------8--------------|
A|----8------8------0-------0--0--0---------------------------------0-----0-|
D|--8----------------------------------------------8------------------------|

e|---------------------------------------6-5--3--1--3---3--3-6-5-3-3-5-1h3--|
B|--3--2--3-----5---6------------6--6---------------------------------------|
G|--0-0-0-0-0----0--0-0---7-5-5--3-3----3--3--3--3--3---0-0-----------------|
D|--0--------0----0----0--0-0-7---0----0----0--0--0--0---2------------------|
A|------------------------------------------------------0----0--------------|
D|--------0---0-----0-----0------5----5----5-----5-----------------0--------|

e|---1-----------------------------------------10---10--9-------0-------0~--|
B|--3--------------------------------------8-10---10-----10-8---0---5\--1~--|
G|--------5-7--7--9-10-12--7---7-9-10--9-10------9-----------9----------2~--|
D|------/7--0---0------------0----0--0-----------------------------7-\--3~--|
A|----------------------------------------------------------------------0~--|
D|----------8-8------------5-----------7-------7--------7-------0-------0~--|

e|--------------0--------------5----------------10---------10----0-----0----|
B|------------5-6-5-5h6--------6------6-6--8----10----10-----10--8----------|
G|--------------5--7-----5-----7------7----7--------10--10---------0h5-5----|
D|--0-0-0---/7--7----------7-8-8-----8---8---5----10------8-----------------|
A|--0-0-0-----------------5----5----5----------------------------0-----0----|
D|--0-0-0----------------5---5-5---5-------5----8---------------------------|

e|----------0---------------0--0---|
B|--3--2-2--1-------------1----0---|
G|--0-0-0---2--2~-------2----------|
D|--0-------3---------3------------|
A|----------0-------0--------------|
D|----------0-0---0------------0---|


************************************

| /   slide up
| \   slide down
| h   hammer-on
| p   pull-off
| ~   vibrato
| +   harmonic
| x   Mute note
| b   Bend
| pb  Pre-bend
| br  Bend release
| pbr Pre-bend release
| brb Bend release bend

************************************
Tap to rate this tab
# A B C D E F G H I J K L M N O P Q R S T U V W X Y Z