Song name
# A B C D E F G H I J K L M N O P Q R S T U V W X Y Z

Kool And The Gang - Jungle Boogie tab

this isnīt the rythym, but itīs easy to work out.

e---------------------------------------------------
b---------------------------------------------------
g--------------------------3-3-----2-3--------------
d----------------------3-4----5-5-----5-4-3---------
a------1-1-----1-3-4-5----------------------5-4-3---
e--3-3-----1-3--------------------------------------

repeat as much as necessary

e-------------------------------------
b-------------------------------------
g-------------------------------------
d---------5p3-------------------------
a-------------------------------------
e--3-3-3-------3-3-3--1-3-------------
 
repeat as much as necessary
Tap to rate this tab
# A B C D E F G H I J K L M N O P Q R S T U V W X Y Z