Song name
# A B C D E F G H I J K L M N O P Q R S T U V W X Y Z

Kool And The Gang - Summer Madness tab

Help us improve GuitareTab! Take a short survey!
Highlighted       Show chord diagrams
F#m6/D to C#m7add11, repeat with a bar of each

  
 F#m6/D    F#m6       C#m7add11
e|--2--------2-----------4----------------|
B|--2--------2-----------7----------------|
G|--2--(or)--2---then----4----------------|
D|--4--------0-----------6----------------|
A|--5--------x-----------4----------------|
E|-----------2----------------------------|

Ezy Chords:
  F#m6  C#m7add11
e|--2----2-----|
B|--2----0-----|
G|--2----1-----|
D|-------------|
A|-------------|
E|-------------|
Related for Summer Madness tab