Song name
# A B C D E F G H I J K L M N O P Q R S T U V W X Y Z

Kopek - Love Is Dead tab

-------------------------------------------------------------------------------
			     Love Is Dead - Kopek
-------------------------------------------------------------------------------
Tabbed by:Me
Email:chase.groulx@gmail.com

Tuning: Standard
for most of the song its just this
e|---------------------------------------------------------------------------|
B|---------------------------------------------------------------------------|
G|---------------------------------------------------------------------------|
D|---------------------------------------------------------------------------|
A|---------------------------------------------------------------------------|
E|3333 3333 3333 3666 6333 3333 3333 3000|

e|---------------------------------------------------------------------------|
B|---------------------------------------------------------------------------|
G|---------------------------------------------------------------------------|
D|---------------------------------------------------------------------------|
A|---------------------------------------------------------------------------|
E|---------------------------------------------------------------------------|
Pre-Chorus
e|-----------------------------------------------------------------------------|
B|-----------------------------------------------------------------------------|
G|-----------------------------------------------------------------------------|
D|5---8---2--------------------------------------------------------------------|
A|5---8---2--------------------------------------------------------------------|
E|3---6---0--------------------------------------------------------------------|
Chorus
e|---------------------------------------------------------------------------|
B|---------------------------------------------------------------------------|
G|---------------------------------------------------------------------------|
D|5555---8---9---11 11 11---11 11 11 11--------------------------------------|
A|5555---8---9---11 11 11---11 11 11 11--------------------------------------|
E|3333---6---7---9  9  9--- 9  9  9  9---------------------------------------|        X4

e|--------------------------------------------------------------------------------|
B|--------------------------------------------------------------------------------|
G|--------------------------------------------------------------------------------|
D|88888888---11 11 11 11 11 11 11 11 ---5-----------------------------------------|
A|88888888---11 11 11 11 11 11 11 11 ---5-----------------------------------------|
E|6666666--- 9  9  9  9  9  9  9  9  ---3-----------------------------------------|
Tap to rate this tab
 
# A B C D E F G H I J K L M N O P Q R S T U V W X Y Z