Song name
# A B C D E F G H I J K L M N O P Q R S T U V W X Y Z

Korn - Blame tab

Help us improve GuitareTab! Take a short survey!
Band - Korn
Song - Blame
Album - Untouchables (2002)
Tuning - A,D,G,C,F,A,D

Intro - Guitar 1
|-----------------------------|
|-----------------------------|
|-----------------------------|
|-----------------------------|
|-----------------------------|   3x
|-----------------------------|
|-0/1\0/1\0/1\0/1\0/1\0/3-3-3-|

|-----------------------|
|-----------------------|
|-----------------------|
|-----------------------|
|-----------------------|
|-----------------------|
|-0/1\0/1\0/1\0/1\0/1\0-|

Guitars 1 & 2
|-----------------------------|
|-----------------------------|
|-----------------------------|
|-----------------------------|
|-----------------------------|   8x
|-----------------------------|
|-0-1-0-1-0-1-0-1-0-1-0-3-3-3-|

Verse - Guitar 2
|-----8--12-----7---7-|
|-6-------------------|
|---------------------|
|---------------------|
|---------------------|   4x
|---------------------|
|---------------------|

|------14-----12---9-|
|-8------------------|
|--------------------|
|--------------------|
|--------------------|   4x
|--------------------|
|--------------------|

Pre-Chorus - play Intro part with both guitars 8x

Play Verse

Play Pre-Chorus

Chorus - Guitar 1
|----------------------------|
|----------------------------|
|----------------------------|
|----------------------------|
|-2----10---5----7----6----5-|   4x
|-2----10---5----7----6----5-|
|-0----8----3----5----4----3-|

Guitar 2
|----------------------------|
|----------------------------|
|----------------------------|
|----------------------------|
|-7----10---5----7----6----5-|   4x
|-7----8----3----5----4----3-|
|-5----8----3----5----4----3-|

Bridge - Guitar 1, let all notes ring
|----12----12----12----14----14----14----15----15----15----17-14----|
|-12----12----12----12----12----12----12----12----12----12-------15-|
|-------------------------------------------------------------------|
|-------------------------------------------------------------------|
|-------------------------------------------------------------------|   3x
|-------------------------------------------------------------------|
|-------------------------------------------------------------------|

Bridge Ending - Guitar 1
|-6b-6b---6b-|
|------------|
|------------|
|------------|
|------------|   Repeats
|------------|
|------------|

Interlude - Guitar 2
|-12---------------------------------|
|------------------------------------|
|------------------------------------|
|------------------------------------|
|------------------------------------|
|------------------------------------|
|------------------------------------|

Guitar 1 plays Intro

Play Chorus

Outro - Guitar 1
|-7-7-7-8-8-5-12---12-12-12-11-11-11-10-9-|
|-----------------------------------------|
|-----------------------------------------|
|-----------------------------------------|
|-----------------------------------------|   4x
|-----------------------------------------|
|-----------------------------------------|

Related for Blame tab