Song name
# A B C D E F G H I J K L M N O P Q R S T U V W X Y Z

Korn - Wedding Song tab

Tabbed by: krazieman
Email: krazieman_is@hotmail.com

Tuning: normal tuning

e|---------------------------------------------------------------------------|
B|---------------------------------------------------------------------------|
G|---------------------------------------------------------------------------|
D|--2-------7------7------7--------------------------------------------------|
A|--2-------7------7------7--------------------------------------------------|
E|--0-------5------5------5--------------------------------------------------|

e|---------------------------------------------------------------------------|
B|---------------------------------------------------------------------------|
G|---------------------------------------------------------------------------|
D|---2-------9-----6-------7-------------------------------------------------|
A|---2-------9-----6-------7-------------------------------------------------|
E|---0-------7-----4-------5-------------------------------------------------|

e|---------------------------------------------------------------------------|
B|---------------------------------------------------------------------------|
G|---------------------------------------------------------------------------|
D|---2------7-----11-----14------11-----9-9-9-9----8----9-----11-------------|
A|---2------7-----11----14------11------9-9-9-9----8----9----11--------------|
E|---0------5-----9-----12------9-------7-7-7-7----6----7----9---------------|
Tap to rate this tab
# A B C D E F G H I J K L M N O P Q R S T U V W X Y Z