Guitaretab - guitar tabs
Song name
# A B C D E F G H I J K L M N O P Q R S T U V W X Y Z
Home / K / Korn / Word Up tab

Korn - Word Up tab

Gtr I (A D G C F A D) - 'Untitled'
Gtr II (A D G C F A D) - 'Untitled'
Gtr III (A D G C F A D) - 'Untitled'
Gtr IV (A D G C F A D) - 'Untitled'


 Intro
  Q=120
 4/4
  Gtr I
  W          H     S S  S S  E  +E     H      H        H      H
|----------|------23-4-23-4-23-(23)-|-23\----23\----|-23\----23\----|
|----------|------------------------|---------------|---------------|
|----------|------------------------|---------------|---------------|
|----------|------------------------|---------------|---------------|
|----------|------------------------|---------------|---------------|
|----------|------------------------|---------------|---------------|
|----------|------------------------|---------------|---------------|


    G#5/Eb                F#5/C#
  Gtr IV
  E  E E  E E  E E  E   E  E E  E  E    E    E   E
|---------------------|-----------------------------|
|---------------------|-----------------------------|
|-x-13-x-13-x-13-x-13-|-x-11-x-11--x---11----x--11--|
|-x-13-x-13-x-13-x-13-|-x-11-x-11--x---11----x--11--|
|---------------------|-----------------------------|
|---------------------|-----------------------------|
|---------------------|-----------------------------|
|
| Gtr I
| W                     H          S S  S S  E  +E
|---------------------|-----------23-4-23-4-23-(23)-|
|---------------------|-----------------------------|
|---------------------|-----------------------------|
|---------------------|-----------------------------|
|---------------------|-----------------------------|
|---------------------|-----------------------------|
|---------------------|-----------------------------|


      E5/B      F#5/C#        G#5/Eb
   E  E E E  E   E E  E    E   E E  E  E   E E  E
|-----------------------|-------------------------|
|-----------------------|-------------------------|
|--x--9-x-9--x--11-x-11-|--x--13-x-13--x--13-x-13-|
|--x--9-x-9--x--11-x-11-|--x--13-x-13--x--13-x-13-|
|-----------------------|-------------------------|
|-----------------------|-------------------------|
|-----------------------|-------------------------|
|
|  H         H             H           H
|-23\-------23\---------|-23\---------23\---------|
|-----------------------|-------------------------|
|-----------------------|-------------------------|
|-----------------------|-------------------------|
|-----------------------|-------------------------|
|-----------------------|-------------------------|
|-----------------------|-------------------------|


   Verses 1 and 2
    $
    G#5                      F#5
    Gtr II
     E  E S S  E H            E  E E  E H
||-------------------------|----------------------|
||-------------------------|----------------------|
||o-13--------13-----------|-11------11-----------|
||--13--------13-----------|-11------11-----------|
||o-11--------11-----------|--9-------9-----------|
||-------------------------|----------------------|
||-------------------------|----------------------|
|
|   Gtr IV
|    E  E E    E E  E E  E    E  E E  E E  E E  E
||-------------------------|----------------------|
||-------------------------|----------------------|
||o--x-13-x---13-x-13-x-13-|--x-11-x-11-x-11-x-11-|
||---x-13-x---13-x-13-x-13-|--x-11-x-11-x-11-x-11-|
||o------------------------|----------------------|
||-------------------------|----------------------|
||-------------------------|----------------------|
|
|   Gtr III
|    E  E S S  E H            E  E E  E H
||-------------------------|----------------------|
||-------------------------|----------------------|
||o------------------------|----------------------|
||---6---------6-----------|--4--4----4-----------|
||o--6---------6-----------|--4--4----4-----------|
||---4---------4-----------|--2--2----2-----------|
||-------------------------|----------------------|


  E5      F#5          G#5   F#5G#5
  E Q   E  E  Q    E    E  E  E  E H          4x
|--------------------|------------------------||
|--------------------|------------------------||
|-9-----9-11------11-|-13-13-11-13-----------o||
|-9-----9-11------11-|-13-13-11-13------------||
|-7-----7--9-------9-|-11-11--9-11-----------o||
|--------------------|------------------------||
|--------------------|------------------------||
|
| E E E E  E  E E  E    E  E  E  E E  E E  E  4x
|--------------------|------------------------||
|--------------------|------------------------||
|-x-9-x-9--x-11-x-11-|--x-13--x-13-x-13-x-13-o||
|-x-9-x-9--x-11-x-11-|--x-13--x-13-x-13-x-13--||
|--------------------|-----------------------o||
|--------------------|------------------------||
|--------------------|------------------------||
|
| E Q   E  E  Q    E    E  E  E  E H          4x
|--------------------|------------------------||
|--------------------|------------------------||
|--------------------|-----------------------o||
|-2-----2--4-------4-|--6--6--4--6------------||
|-2-----2--4-------4-|--6--6--4--6-----------o||
|-0-----0--2-------2-|--4--4--2--4------------||
|--------------------|------------------------||


   Chorus
    G#5                             F#5
    Gtr II
     E  +E   +E   E  +H              E   +Q    E  +H
||--------------------------------|----------------------------|
||--------------------------------|----------------------------|
||o-13-(13)-(13)-13-(13)----------|-11--(11)--11-(11)----------|
||--13-(13)-(13)-13-(13)----------|-11--(11)--11-(11)----------|
||o-11-(11)-(11)-11-(11)----------|--9---(9)---9--(9)----------|
||--------------------------------|----------------------------|
||--------------------------------|----------------------------|
|
|   Gtr III
|    Q        E   Q       Q   +E     Q.        Q       +Q    E
||--------------------------------|----------------------------|
||-----------14--14------13--(13)-|-12--------11------(11)\----|
||o----------13--13------13--(13)-|-11--------11------(11)\----|
||--------------------------------|----------------------------|
||o-------------------------------|----------------------------|
||--------------------------------|----------------------------|
||--------------------------------|----------------------------|


                                                  D.S.
  E5       F#5           G#5   F#5G#5
  E +Q   E  E  +Q    E    E  E  E  E  E  +Q       +E
|----------------------|--------------------------------||
|----------------------|--------------------------------||
|-9-(9)--9-11-(11)--11-|-13-13-11-13-13-(13)-----(13)--o||
|-9-(9)--9-11-(11)--11-|-13-13-11-13-13-(13)-----(13)---||
|-7-(7)--7--9--(9)---9-|-11-11--9-11-11-(11)-----(11)--o||
|----------------------|--------------------------------||
|----------------------|--------------------------------||
|
| E +Q   E  E  +Q    E    E  E  E  E  Q      +Q
|----------------------|--------------------------------||
|----------------------|--------------------------------||
|----------------------|-------------------------------o||
|-2-(2)--2--4--(4)---4-|--6--6--4--6--6------(6)--------||
|-2-(2)--2--4--(4)---4-|--6--6--4--6--6------(6)-------o||
|-0-(0)--0--2--(2)---2-|--4--4--2--4--4------(4)--------||
|----------------------|--------------------------------||

[ Tab from: http://www.guitaretab.com/k/korn/132402.html ]
   Breakdown
    Gtrs II, III
    S S e E S S e E S S E   S S e E S S  e    E    S S   E
||------------------------|---------------------------------|
||------------------------|---------------------------------|
||o-----------------------|---------------------------------|
||------------------------|---------------------------------|
||o-----------------------|---------------------------------|
||----------------------9-|------------------------------9--|
||--7h8h9-9-7h8h9-9-8-9---|-7h8h9-9-7h8h=9----9----8-9------|
|
|   Gtr I
|   W                       H            S S  S S  E    +E
||------------------------|-------------23-4-23-4-23---(23)-|
||------------------------|---------------------------------|
||o-----------------------|---------------------------------|
||------------------------|---------------------------------|
||o-----------------------|---------------------------------|
||------------------------|---------------------------------|
||------------------------|---------------------------------|


   S  S e E S S  e  E S S E    S  S e E S S  e  E S S E
|---------------------------|------------------------------||
|---------------------------|------------------------------||
|---------------------------|-----------------------------o||
|---------------------------|------------------------------||
|---------------------------|-----------------------------o||
|-------------------------9-|-------------------------9----||
|--7h=8h9-9-7h8h=9--9-8-9---|--7h=8h9-9-7h8h=9--9-8-9------||
|
|  H             H             H             H
|-23\-----------23\---------|-23\-----------23\------------||
|---------------------------|------------------------------||
|---------------------------|-----------------------------o||
|---------------------------|------------------------------||
|---------------------------|-----------------------------o||
|---------------------------|------------------------------||
|---------------------------|------------------------------||


   Chorus
    G#5                             F#5
    Gtr II
     E  +E   +E   E  +H              E   +Q    E  +H
||--------------------------------|----------------------------|
||--------------------------------|----------------------------|
||o-13-(13)-(13)-13-(13)----------|-11--(11)--11-(11)----------|
||--13-(13)-(13)-13-(13)----------|-11--(11)--11-(11)----------|
||o-11-(11)-(11)-11-(11)----------|--9---(9)---9--(9)----------|
||--------------------------------|----------------------------|
||--------------------------------|----------------------------|
|
|   Gtr III
|    Q        E   Q       Q   +E     Q.        Q       +Q    E
||--------------------------------|----------------------------|
||-----------14--14------13--(13)-|-12--------11------(11)\----|
||o----------13--13------13--(13)-|-11--------11------(11)\----|
||--------------------------------|----------------------------|
||o-------------------------------|----------------------------|
||--------------------------------|----------------------------|
||--------------------------------|----------------------------|


                        1.,2.,3.                         4.
  E5       F#5           G#5   F#5G#5                     G#5   F#5G#5
  E +Q   E  E  +Q    E    E  E  E  E  E  +Q       +E   4x  E  E  E  E  E Q   E
|----------------------|-------------------------------||----------------------|
|----------------------|-------------------------------||----------------------|
|-9-(9)--9-11-(11)--11-|-13-13-11-13-13-(13)-----(13)-o||-13-13-11-13-13-------|
|-9-(9)--9-11-(11)--11-|-13-13-11-13-13-(13)-----(13)--||-13-13-11-13-13-------|
|-7-(7)--7--9--(9)---9-|-11-11--9-11-11-(11)-----(11)-o||-11-11--9-11-11-------|
|----------------------|-------------------------------||----------------------|
|----------------------|-------------------------------||----------------------|
|
| E +Q   E  E  +Q    E    E  E  E  E  Q      +Q        4x  E  E  E  E  E E E E
|----------------------|-------------------------------||----------------------|
|----------------------|-------------------------------||----------------------|
|----------------------|------------------------------o||----------------------|
|-2-(2)--2--4--(4)---4-|--6--6--4--6--6------(6)-------||--6--6--4--9--9-8-8-6-|
|-2-(2)--2--4--(4)---4-|--6--6--4--6--6------(6)------o||--6--6--4--9--9-8-8-6-|
|-0-(0)--0--2--(2)---2-|--4--4--2--4--4------(4)-------||--4--4--2--7--7-6-6-4-|
|----------------------|-------------------------------||----------------------|


  G#5                              F#5 G#5
  Gtr II
  E E E E E E E E   E E E E E  E E E   E E E E Q   Q
|-----------------|------------------|----------------*|
|-----------------|------------------|----------------*|
|-----------------|------------------|----------------*|
|-6-6-----6-6-----|-6-6---6-6--6---4-|-6-6---6-6\-----*|
|-6-6-----6-6-----|-6-6---6-6--6---4-|-6-6---6-6\-----*|
|-4-4-----4-4-----|-4-4---4-4--4---2-|-4-4---4-4\-----*|
|-----------------|------------------|----------------*|
|
| Gtr III
| E E E E E E E E   E E E E Q    E E   E E H       Q
|-----------------|------------------|----------------*|
|-----------------|------------------|----------------*|
|-----------------|------------------|----------------*|
|-6---9-9-9-8-8-6-|-6-6-4-4-6\---4-4-|-6-6------------*|
|-6---9-9-9-8-8-6-|-6-6-4-4-6\---4-4-|-6-6------------*|
|-4---7-7-7-6-6-4-|-4-4-2-2-4\---2-2-|-4-4------------*|
|-----------------|------------------|----------------*|




--------------------------------------------------------------------------------


Duration Legend
---------------
W - whole; H - half; Q - quarter; E - 8th; S - 16th; T - 32nd; X - 64th; a - acciaccatura
+ - note tied to previous; . - note dotted; .. - note double dotted
Uncapitalized letters represent notes that are staccato (1/2 duration)
Irregular groupings are notated above the duration line
Duration letters will always appear directly above the note/fret number it represents the
duration for.  Duration letters with no fret number below them represent rests.  Multi-
bar rests are notated in the form Wxn, where n is the number of bars to rest for.  Low
melody durations appear below the staff

Tablature Legend
----------------
 h   - hammer-on
 p   - pull-off
 b   - bend
 pb  - pre-bend
 r   - bend release (if no number after the r, then release immediately)
 /\  - slide into or out of (from/to "nowhere")
 s   - legato slide
 S   - shift slide
 - natural harmonic
[n]  - artificial harmonic
n(n) - tapped harmonic
 ~   - vibrato
 tr  - trill
 T   - tap
 TP  - trem. picking
 PM  - palm muting
\n/  - tremolo bar dip; n = amount to dip
 \n  - tremolo bar down
 n/  - tremolo bar up
/n\  - tremolo bar inverted dip
 =   - hold bend; also acts as connecting device for hammers/pulls
 <> - volume swell (louder/softer)
 x   - on rhythm slash represents muted slash
 o   - on rhythm slash represents single note slash

Misc Legend
-----------
 |  - bar
||  - double bar
||o - repeat start
o|| - repeat end
*|  - double bar (ending)
 :  - bar (freetime)
 $  - Segno
 &  - Coda
Tempo markers -  = BPM(8/16=s8/s16), where s8 = swing 8ths, s16 = swing 16ths


Related for Word Up tab
Word Up chords by Korn