Song name
# A B C D E F G H I J K L M N O P Q R S T U V W X Y Z

Korn - Kill You tab

Gtr I (A D G C F A D) - 'Head (clean)'
Gtr II (A D G C F A D) - 'Munky (clean)'
Gtr III (A D G C F A D) - 'Head'
Gtr IV (A D G C F A D) - 'Munky'


   Intro
    Moderately Q=119
   4/4
    Gtr I
    E E E E E E E E   E E E E E E E E   E E E E E E E E   E E E E E E E E
||------------------|-----------------|-----------------|-------------------||
||------------------|-----------------|-----------------|-------------------||
||o-----------------|-----------------|-------------0-0-|-0----------------o||
||--------0-0-0-----|---0-0-0-----0-0-|-------0-0-0-----|---0-0-0-----0-----||
||o-5-5-5-------5-5-|-5-------5-5-----|-4-4-4-----------|---------4-4---4--o||
||------------------|-----------------|-----------------|-------------------||
||------------------|-----------------|-----------------|-------------------||


   Verse
    $
    Gtrs I, II
    E E E E E E E E   E E E E E E E E   E E E E E E E E   E E E E E E E E  4x
||------------------|-----------------|-----------------|------------------||
||------------------|-----------------|-----------------|------------------||
||o-----------------|-----------------|-------------0-0-|-0---------------o||
||--------0-0-0-----|---0-0-0-----0-0-|-------0-0-0-----|---0-0-0-----0----||
||o-5-5-5-------5-5-|-5-------5-5-----|-4-4-4-----------|---------4-4---4-o||
||------------------|-----------------|-----------------|------------------||
||------------------|-----------------|-----------------|------------------||


                                                        D.S.
    D5                          C#5             F#5   C5
    Gtrs III, IV
    W          +W               W                Q.   E +H
||-----------|----------------|---------------|-----------------||
||-----------|----------------|---------------|-----------------||
||o----------|----------------|---------------|----------------o||
||-----------|----------------|---------------|--4--------------||
||o-5--------|-(5)------------|-4-------------|--4----3-(3)----o||
||--5--------|-(5)------------|-4-------------|--2----3-(3)-----||
||--3--------|-(3)------------|-2-------------|-------1-(1)-----||
|
|   Gtr I
|   W           Q.   E +H       Q  E E +H       +W
||-----------|----------------|---------------|-----------------||
||-----------|----------------|------0-(0)----|-(0)-------------||
||o-0--------|--0----0-(0)----|----0----------|----------------o||
||--4--------|-------4-(4)----|---------------|-----------------||
||o-5--------|----------------|-4-------------|----------------o||
||-----------|----------------|---------------|-----------------||
||-----------|----------------|---------------|-----------------||


   Chorus
    $$                      To Coda
    D5   D#5    F#5      C5   C#5D#5
    Q.   E +Q   Q    +E  Q.   Q  Q   8x
||-----------------|-----------------||
||-----------------|-----------------||
||o----------------|----------------o||
||--------------4--|-(4)-------------||
||o-5----6-(6)--4--|-(4)-3----4--6--o||
||--5----6-(6)--2--|-(2)-3----4--6---||
||--3----4-(4)-----|-----1----2--4---||


   Bridge
    Faster Q=131
    Gtr III
    PM|                             PM--|
    E E  E      +E  E E E E   E E E E E E  Q           7x
||------17pb19r(17)---------|--------------------------||
||--------------------------|--------------------------||
||o-------------------------|-------------------------o||
||--------------------------|--------------------------||
||o-------------------------|-------------------------o||
||--------------------------|--------------------------||
||--0-0---------------0---0-|---0---0-0-0--------------||
|
|   Gtr IV
|   PM|                             PM--|
|   E E  Q          E E E E   E E E E E E  E      +E   7x
||--------------------------|--------------------------||
||--------------------------|-------------18pb19r(18)--||
||o-------------------------|-------------------------o||
||--------------------------|--------------------------||
||o-------------------------|-------------------------o||
||--------------------------|--------------------------||
||--0-0---------------0---0-|---0---0-0-0--------------||


  PM|
  E E  E      +E  E E E E   E E E E Q  Q
|-----17pb19r(17)---------|---------------|
|-------------------------|---------------|
|-------------------------|---------------|
|-------------------------|---------------|
|-------------------------|---------------|
|-------------------------|---------------|
|-0-0---------------0---0-|---0---0-1--0--|
|
| PM|
| E E  Q          E E E E   E E E E Q  Q
|-------------------------|---------------|
|-------------------------|---------------|
|-------------------------|---------------|
|-------------------------|---------------|
|-------------------------|---------------|
|-------------------------|---------------|
|-0-0---------------0---0-|---0---0-1--0--|


    Moderately Q=119
                                                            D.S.S. al Coda
   4/4
    Gtr I
    E E E E E E E E   E E E E E E E E   E E E E E E E E   E E E E E E E E
||------------------|-----------------|-----------------|-------------------||
||------------------|-----------------|-----------------|-------------------||
||o-----------------|-----------------|-------------0-0-|-0----------------o||
||--------0-0-0-----|---0-0-0-----0-0-|-------0-0-0-----|---0-0-0-----0-----||
||o-5-5-5-------5-5-|-5-------5-5-----|-4-4-4-----------|---------4-4---4--o||
||------------------|-----------------|-----------------|-------------------||
||------------------|-----------------|-----------------|-------------------||


    &
    D5                          C#5             F#5   C5
    Gtrs III, IV
    W          +W               W                Q.   E +H
||-----------|----------------|---------------|-----------------||
||-----------|----------------|---------------|-----------------||
||o----------|----------------|---------------|----------------o||
||-----------|----------------|---------------|--4--------------||
||o-5--------|-(5)------------|-4-------------|--4----3-(3)----o||
||--5--------|-(5)------------|-4-------------|--2----3-(3)-----||
||--3--------|-(3)------------|-2-------------|-------1-(1)-----||
|
|   Gtr I
|   W           Q.   E +H       Q  E E +H       +W
||-----------|----------------|---------------|-----------------||
||-----------|----------------|------0-(0)----|-(0)-------------||
||o-0--------|--0----0-(0)----|----0----------|----------------o||
||--4--------|-------4-(4)----|---------------|-----------------||
||o-5--------|----------------|-4-------------|----------------o||
||-----------|----------------|---------------|-----------------||
||-----------|----------------|---------------|-----------------||


 Outro
  Q=60
              2/4      4/4          13/16
  +W           +H       +W           +H.      +S
|------------|--------|------------|--------------|
|------------|--------|------------|--------------|
|------------|--------|------------|--------------|
|------------|--------|------------|--------------|
|-(3)--------|-(3)----|-(3)--------|-(3)------(3)-|
|-(3)--------|-(3)----|-(3)--------|-(3)------(3)-|
|-(1)--------|-(1)----|-(1)--------|-(1)------(1)-|


 4/4          13/16          4/4          13/16
   >
  +W           +H.      +S    +W           +H.      +S
|------------|--------------|------------|---------------|
|------------|--------------|------------|---------------|
|------------|--------------|------------|---------------|
|------------|--------------|------------|---------------|
|-(3)--------|-(3)------(3)-|-(3)--------|-(3)------(3)--|
|-(3)--------|-(3)------(3)-|-(3)--------|-(3)------(3)--|
|-(1)--------|-(1)------(1)-|-(1)--------|-(1)------(1)--|


 4/4          13/16          4/4          13/16
                         <
  +W           +H.      +S    +W           W
|------------|--------------|------------|------*|
|------------|--------------|------------|------*|
|------------|--------------|------------|------*|
|------------|--------------|------------|------*|
|-(3)--------|-(3)------(3)-|-(3)--------|------*|
|-(3)--------|-(3)------(3)-|-(3)--------|------*|
|-(1)--------|-(1)------(1)-|-(1)--------|------*|




--------------------------------------------------------------------------------


Duration Legend
---------------
W - whole; H - half; Q - quarter; E - 8th; S - 16th; T - 32nd; X - 64th; a - acciaccatura
+ - note tied to previous; . - note dotted; .. - note double dotted
Uncapitalized letters represent notes that are staccato (1/2 duration)
Irregular groupings are notated above the duration line
Duration letters will always appear directly above the note/fret number it represents the
duration for.  Duration letters with no fret number below them represent rests.  Multi-
bar rests are notated in the form Wxn, where n is the number of bars to rest for.  Low
melody durations appear below the staff

Tablature Legend
----------------
 h   - hammer-on
 p   - pull-off
 b   - bend
 pb  - pre-bend
 r   - bend release (if no number after the r, then release immediately)
 /\  - slide into or out of (from/to "nowhere")
 s   - legato slide
 S   - shift slide
 - natural harmonic
[n]  - artificial harmonic
n(n) - tapped harmonic
 ~   - vibrato
 tr  - trill
 T   - tap
 TP  - trem. picking
 PM  - palm muting
\n/  - tremolo bar dip; n = amount to dip
 \n  - tremolo bar down
 n/  - tremolo bar up
/n\  - tremolo bar inverted dip
 =   - hold bend; also acts as connecting device for hammers/pulls
 <> - volume swell (louder/softer)
 x   - on rhythm slash represents muted slash
 o   - on rhythm slash represents single note slash

Misc Legend
-----------
 |  - bar
||  - double bar
||o - repeat start
o|| - repeat end
*|  - double bar (ending)
 :  - bar (freetime)
 $  - Segno
 &  - Coda
Tempo markers -  = BPM(8/16=s8/s16), where s8 = swing 8ths, s16 = swing 16ths
Tap to rate this tab
 
# A B C D E F G H I J K L M N O P Q R S T U V W X Y Z