Song name
# A B C D E F G H I J K L M N O P Q R S T U V W X Y Z

Korn - Sean Olson tab

---------------------------------------------------------------------------
			     Sean Olson - Korn
---------------------------------------------------------------------------

Tuning:A.D.G.C.F.A.D.  7-String


 Intro     (Both Guitars)
D|----------0~~0~~0~0~0~0~~0~0~0~~0~~0~~0~~0~0~0~0~~0~0~0~~0~~~------|
A|----------5~~5~~5~5~5~5~~5~5~6~~6~~4~~4~~4~4~4~4~~4~4~0~~0~~~------|
F|-------------------------------------------------------------------|
C|-------------------------------------------------------------------|
G|-------------------------------------------------------------------|
D|-------------------------------------------------------------------|
A|-------------------------------------------------------------------|


 Verse      (Both Guitars) "Warm Glance, Fake Smile"
D|-------------------------------------------------------------------|
A|-------------------------------------------------------------------|
F|-------------------------------------------------------------------|
C|-------------------------------------------------------------------|
G|------------8-----8------8-----8------8-----8-----8----------------|
D|------------7-----7------7-----7------7-----7-----7---3------------|
A|-------0--0---0-0---0-0----0-0---0--0---0-0---0-0---0-1------------|
         .  .   . .   . .    . .   .  .   . .   . .   . 


 Pre-chorus    (Guitar 1) "Everybody Listen While I Think Of All I Know"
D|----------0~~0~~0~0~0~0~~0~0~0~~0~~0~~0~~0~0~0~0~~0~0~0~~0~~~------|
A|----------5~~5~~5~5~5~5~~5~5~6~~6~~4~~4~~4~4~4~4~~4~4~0~~0~~~------|
F|-------------------------------------------------------------------|
C|-------------------------------------------------------------------|
G|-------------------------------------------------------------------|
D|-------------------------------------------------------------------|
A|-------------------------------------------------------------------|
               (Guitar 2)
D|-------------------------------------------------------------------|
A|-------------------------------------------------------------------|
F|-------------------------------------------------------------------|
C|-------------------------------------------------------------------|
G|----------------8-----8------8-----8------8-----8-----8------------|
D|----------------7-----7------7-----7------7-----7-----7---3--------|
A|-----------0--0---0-0---0-0----0-0---0--0---0-0---0-0---0-1--------|
             .  .   . .   . .    . .   .  .   . .   . .   . 


 Chorus     (Both Guitars)
D|------------------------------------------------------|
A|------------------------------------------------------|
F|------------------------------------------------------|
C|------------------------------------------------------|"I Wish I could
G|----------5--5--6--4--4-4-4-4\5/4---------------------|take Control"
D|----------5--5--6--4--4-4-4-4\5/4---------------------|
A|----------3--3--4--2--2-2-2-2\3/2---------------------|
                          . .


 Bridge 1   (Guitar 1)
D|----------------------------------------------------------|
A|----------------------------------------------------------|
F|----------------------------------------------------------|
C|----------------------------------------------------------|"I'm Comin(3x) 
G|---------0-4-3---0-4-3---0-4-3---0-5-4-3------------------|on You"
D|---------0-4-3---0-4-3---0-4-3---0-5-4-3------------------|
A|---------0-2-1---0-2-1---0-2-1---0-3-2-1------------------|
           . .     . .     . .     . . .
            (Guitar 2)
D|---------000000000000000000000000000000000000-------------|
A|---------555555555555666666444444444444000000-------------|
F|----------------------------------------------------------|
C|----------------------------------------------------------|Tremolo Picking
G|----------------------------------------------------------|
D|----------------------------------------------------------|
A|----------------------------------------------------------|


 Bridge 2   (Guitar 1)
D|---------------------------------------------|
A|---------------------------------------------|
F|---------------------------------------------|
C|---------------------------------------------|"I_________ Am Done"
G|---------0-4-3---0-4-3---0-4-3---0-5-4-3-----|
D|---------0-4-3---0-4-3---0-4-3---0-5-4-3-----|
A|---------0-2-1---0-2-1---0-2-1---0-3-2-1-----|
           . .     . .     . .     . . .        
            (Guitar 2)
D|--------------------------------------|
A|--------------------------------------|
F|--------------------------------------|
C|-----4444422211111666555555-----------|Tremolo Picking.
G|--------------------------------------|Ends the 8x.
D|---------------------------44444------|Then goes along with(Guitar 1)for 
A|--------------------------------------|the last 4x.
 

 Outro 1    (Both Guitars)
D|-----------------------------------------------------------|
A|-----------------------------------------------------------|
F|-----------------------------------------------------------|
c|-----------------------------------------------------------|"I'M COMIN(3x)
G|---------0-4-3---0-4-3---0-4-3----0-5-4-3------------------|ON YOU"
D|---------0-4-3---0-4-3---0-4-3----0-5-4-3------------------|(SCREAMING)
A|---------0-2-1---0-2-1---0-2-1----0-3-2-1------------------|


 Outro 2    (Both Guitars)
D|-------------------------------------------|
A|-------------------------------------------|
F|-------------------------------------------|
C|-------------------------------------------|1x at
G|---------0-4-3---0-4-3---0-4-X-------------|the very end. 
D|---------0-4-3---0-4-3---0-4-X-------------|
A|---------0-2-1---0-2-1---0-2-X-------------|
           . .     . .     . .     


Song Structure:
Intro      4x
Verse      4x
Pre-Chorus 2x
Verse      4x
Chorus     8x
Bridge 1   4x
Verse      4x
Pre-Chorus 2x
Chorus     8x
Bridge 2   12x
Outro 1    4x
Outro 2    1x 


===========================================================================
|" " lyrics 
| .  palm mute
| /  slide up
| \  slide down
| h  hammer-on
| p  pull-off
| ~  let ring
| *  harmonic
| x  Mute note
===========================================================================
Tap to rate this tab
# A B C D E F G H I J K L M N O P Q R S T U V W X Y Z