Song name
# A B C D E F G H I J K L M N O P Q R S T U V W X Y Z

Kottonmouth Kings - Demons tab

demons - feat the dirtball

Tabbed by Haak
This is my first tab ever




H - Harmonics


intro
|------0-----0-1-0---------|
|------1-----------3-1-0---|
|------2-------------------|
|------2-------------------|
|--0-----------------------|
|--------------------------|


And then all the time:
                  
|------0---0------12--|x3
|------1---0------12--|
|------2---0----------|
|------2--------------|
|--0------------------|
|---------------------|
                  H


and then the fourth time is the same line as the intro.
Tap to rate this tab
 
# A B C D E F G H I J K L M N O P Q R S T U V W X Y Z