Song name
# A B C D E F G H I J K L M N O P Q R S T U V W X Y Z

Kraftklub - Songs Fuer Liam tab

Intro/Verse:

Gitarre 1 (Karl):

|----------------|----------------|----------------|----------------|
|----------------|----------------|----------------|----------------|
|----------------|----------------|----------------|----------------|
|----7-----5-----|----7-------5---|----7-----5-----|----7---5---4---|
|------5-7-------|--------7-------|------5-7-------|----------------|
|5-------------5-|-5----5---------|5-------------5-|-5----5---------|
 1   2   3   4    1   2   3   4    1   2   3   4    1   2   3   4   

Gitarre 2 (Steffen):
       A5                               D5                C5
|----------------|----------------|----------------|----------------|
|----------------|----------------|----------------|----------------|
|----------------|----------------|----------------|----------------|
|----------------|----------------|7-7-7-7-7-7-7-7-|5-5-5-5-5-5-5-5-|
|7-7-7-7-7-7-7-7-|7-7-7-7-7-7-7-7-|5-5-5-5-5-5-5-5-|3-3-3-3-3-3-3-3-|
|5-5-5-5-5-5-5-5-|5-5-5-5-5-5-5-5-|----------------|----------------|
 1   2   3   4    1   2   3   4    1   2   3   4    1   2   3   4

Interlude während der Verse:

Gitarre 1:

|----------------|------8-8-101010|1010-8-8-8------|---------------|
|------------8-8-|8-1010----------|----------101010|8-8-8----------|
|7-7-7-101010----|----------------|----------------|------1010-7-7-|
|----------------|----------------|----------------|---------------|
|----------------|----------------|----------------|---------------|
|----------------|----------------|----------------|---------------|
 1   2   3   4    1   2   3   4    1   2   3   4    1   2   3   4

Die zweite Gitarre spielt einen D5 durch, danach wird das Intro-Thema wiederholt, 
dabei spielt die zweite Gitarre allerdings nur ein A5 durch.

Refrain:

             A              D                     C
Wenn du mich küsst schreibt Noel wieder Songs für Liam,
             G                  A
wenn du mich küsst,wenn du mich küsst 
              D                     C
kommen unsere Freunde zurück aus Berlin, 
             G                       A
wenn du mich küsst. Und wenn du mich küsst, 
             C                         G
dann ist die Welt ein bisschen weniger scheiße,
             D                   A
wenn du mich küsst, wenn du mich küsst,
           C                   G
bleibst du hier oder gehen wir beide?
             D
Wenn du mich küsst.



Auf dem letzten Akkord spielt Karl noch eine kleine Melodie, etwa so:

|----------------|
|----------------|
|7--5--7---------|
|--------7--5----|
|--------------8-|
 1   2   3   4

Bridge:

A5
Wenn du mich küsst, wenn du mich küsst,
A5           B5    C5            D5
wenn du mich küsst, wenn du mich küsst.
A5           B5    C5            D5
Wenn du mich küsst, wenn du mich küsst,
A5           B5    C5            D5
wenn du mich küsst, wenn du mich küsst.
Tap to rate this tab
# A B C D E F G H I J K L M N O P Q R S T U V W X Y Z