Song name
# A B C D E F G H I J K L M N O P Q R S T U V W X Y Z

Krum Bums - Cease Fire tab

ok this is my first tab and there 
arnt any others for this band let
alone this song so if any coments etc feel free

E|---------------------------------|
B|---------------------------------|
G|-------------5--------5----------|
D|777777777777-5-555555-5-333333-2-|
A|777777777777-3-555555-3-333333-2-|
E|555555555555---333333---111111-0-|

E|---------------------------------|
B|---------------------------------|
G|-------------5--------5----------|
D|777777777777-5-555555-5-333333-2-|
A|777777777777-3-555555-3-333333-2-|
E|555555555555---333333---111111-0-|

E|--------------------------------------------------------|
B|--------------------------------------------------------|
G|99999999-12-10-9-9-9h10p9-7-999999-10-------------------|
D|--------------------------------------10-10-10-12-9-9-9-|
A|--------------------------------------------------------|
E|--------------------------------------------------------|

and then i think the verse is the same as the first riff.

http://www.myspace.com/krumbums  
Tap to rate this tab
# A B C D E F G H I J K L M N O P Q R S T U V W X Y Z